ISO-10303-21;
HEADER;
/* Generated by software containing ST-Developer
 * from STEP Tools, Inc. (www.steptools.com) 
 */
/* OPTION: strings as raw bytes, not using required /X/ escapes */

FILE_DESCRIPTION(
/* description */ ('Unknown'),
/* implementation_level */ '2;1');

FILE_NAME(
/* name */ 'DetectorLegSupports',
/* time_stamp */ '2015-09-22T09:58:28-07:00',
/* author */ ('Unknown'),
/* organization */ ('Unknown'),
/* preprocessor_version */ 'ST-DEVELOPER v16',
/* originating_system */ 'DEX',
/* authorisation */ $);

FILE_SCHEMA (('AUTOMOTIVE_DESIGN {1 0 10303 214 3 1 1}'));
ENDSEC;

DATA;
#10=PROPERTY_DEFINITION_REPRESENTATION(#14,#12);
#11=PROPERTY_DEFINITION_REPRESENTATION(#15,#13);
#12=REPRESENTATION('',(#16),#387);
#13=REPRESENTATION('',(#17),#387);
#14=PROPERTY_DEFINITION('pmi validation property','',#392);
#15=PROPERTY_DEFINITION('pmi validation property','',#392);
#16=VALUE_REPRESENTATION_ITEM('number of annotations',COUNT_MEASURE(0.));
#17=VALUE_REPRESENTATION_ITEM('number of views',COUNT_MEASURE(0.));
#18=SHAPE_REPRESENTATION_RELATIONSHIP('','',#245,#19);
#19=ADVANCED_BREP_SHAPE_REPRESENTATION('',(#243),#387);
#20=CYLINDRICAL_SURFACE('',#263,2.15265);
#21=CYLINDRICAL_SURFACE('',#264,2.15265);
#22=CYLINDRICAL_SURFACE('',#265,2.15265);
#23=CYLINDRICAL_SURFACE('',#266,2.15265);
#24=LINE('',#333,#42);
#25=LINE('',#336,#43);
#26=LINE('',#338,#44);
#27=LINE('',#340,#45);
#28=LINE('',#342,#46);
#29=LINE('',#344,#47);
#30=LINE('',#346,#48);
#31=LINE('',#352,#49);
#32=LINE('',#354,#50);
#33=LINE('',#356,#51);
#34=LINE('',#362,#52);
#35=LINE('',#364,#53);
#36=LINE('',#366,#54);
#37=LINE('',#368,#55);
#38=LINE('',#370,#56);
#39=LINE('',#372,#57);
#40=LINE('',#378,#58);
#41=LINE('',#379,#59);
#42=VECTOR('',#275,1000.);
#43=VECTOR('',#276,1000.);
#44=VECTOR('',#277,1000.);
#45=VECTOR('',#278,1000.);
#46=VECTOR('',#281,1000.);
#47=VECTOR('',#282,1000.);
#48=VECTOR('',#283,1000.);
#49=VECTOR('',#290,1000.);
#50=VECTOR('',#291,1000.);
#51=VECTOR('',#292,1000.);
#52=VECTOR('',#299,1000.);
#53=VECTOR('',#300,1000.);
#54=VECTOR('',#301,1000.);
#55=VECTOR('',#304,1000.);
#56=VECTOR('',#305,1000.);
#57=VECTOR('',#306,1000.);
#58=VECTOR('',#313,1000.);
#59=VECTOR('',#314,1000.);
#60=ORIENTED_EDGE('',*,*,#112,.T.);
#61=ORIENTED_EDGE('',*,*,#113,.T.);
#62=ORIENTED_EDGE('',*,*,#114,.F.);
#63=ORIENTED_EDGE('',*,*,#115,.F.);
#64=ORIENTED_EDGE('',*,*,#116,.T.);
#65=ORIENTED_EDGE('',*,*,#117,.T.);
#66=ORIENTED_EDGE('',*,*,#118,.F.);
#67=ORIENTED_EDGE('',*,*,#117,.F.);
#68=ORIENTED_EDGE('',*,*,#119,.T.);
#69=ORIENTED_EDGE('',*,*,#120,.T.);
#70=ORIENTED_EDGE('',*,*,#121,.T.);
#71=ORIENTED_EDGE('',*,*,#122,.T.);
#72=ORIENTED_EDGE('',*,*,#123,.F.);
#73=ORIENTED_EDGE('',*,*,#120,.F.);
#74=ORIENTED_EDGE('',*,*,#124,.T.);
#75=ORIENTED_EDGE('',*,*,#125,.T.);
#76=ORIENTED_EDGE('',*,*,#126,.F.);
#77=ORIENTED_EDGE('',*,*,#127,.F.);
#78=ORIENTED_EDGE('',*,*,#128,.F.);
#79=ORIENTED_EDGE('',*,*,#125,.F.);
#80=ORIENTED_EDGE('',*,*,#129,.T.);
#81=ORIENTED_EDGE('',*,*,#130,.T.);
#82=ORIENTED_EDGE('',*,*,#131,.F.);
#83=ORIENTED_EDGE('',*,*,#130,.F.);
#84=ORIENTED_EDGE('',*,*,#132,.T.);
#85=ORIENTED_EDGE('',*,*,#133,.T.);
#86=ORIENTED_EDGE('',*,*,#134,.T.);
#87=ORIENTED_EDGE('',*,*,#135,.T.);
#88=ORIENTED_EDGE('',*,*,#136,.F.);
#89=ORIENTED_EDGE('',*,*,#133,.F.);
#90=ORIENTED_EDGE('',*,*,#137,.T.);
#91=ORIENTED_EDGE('',*,*,#115,.T.);
#92=ORIENTED_EDGE('',*,*,#116,.F.);
#93=ORIENTED_EDGE('',*,*,#137,.F.);
#94=ORIENTED_EDGE('',*,*,#132,.F.);
#95=ORIENTED_EDGE('',*,*,#129,.F.);
#96=ORIENTED_EDGE('',*,*,#124,.F.);
#97=ORIENTED_EDGE('',*,*,#119,.F.);
#98=ORIENTED_EDGE('',*,*,#114,.T.);
#99=ORIENTED_EDGE('',*,*,#118,.T.);
#100=ORIENTED_EDGE('',*,*,#123,.T.);
#101=ORIENTED_EDGE('',*,*,#128,.T.);
#102=ORIENTED_EDGE('',*,*,#131,.T.);
#103=ORIENTED_EDGE('',*,*,#136,.T.);
#104=ORIENTED_EDGE('',*,*,#127,.T.);
#105=ORIENTED_EDGE('',*,*,#135,.F.);
#106=ORIENTED_EDGE('',*,*,#126,.T.);
#107=ORIENTED_EDGE('',*,*,#134,.F.);
#108=ORIENTED_EDGE('',*,*,#122,.F.);
#109=ORIENTED_EDGE('',*,*,#113,.F.);
#110=ORIENTED_EDGE('',*,*,#121,.F.);
#111=ORIENTED_EDGE('',*,*,#112,.F.);
#112=EDGE_CURVE('',#138,#138,#158,.F.);
#113=EDGE_CURVE('',#139,#139,#159,.F.);
#114=EDGE_CURVE('',#140,#141,#24,.T.);
#115=EDGE_CURVE('',#142,#140,#25,.T.);
#116=EDGE_CURVE('',#142,#143,#26,.T.);
#117=EDGE_CURVE('',#143,#141,#27,.T.);
#118=EDGE_CURVE('',#141,#144,#28,.T.);
#119=EDGE_CURVE('',#143,#145,#29,.T.);
#120=EDGE_CURVE('',#145,#144,#30,.T.);
#121=EDGE_CURVE('',#146,#146,#160,.T.);
#122=EDGE_CURVE('',#147,#147,#161,.T.);
#123=EDGE_CURVE('',#144,#148,#31,.T.);
#124=EDGE_CURVE('',#145,#149,#32,.T.);
#125=EDGE_CURVE('',#149,#148,#33,.T.);
#126=EDGE_CURVE('',#150,#150,#162,.T.);
#127=EDGE_CURVE('',#151,#151,#163,.T.);
#128=EDGE_CURVE('',#148,#152,#34,.T.);
#129=EDGE_CURVE('',#149,#153,#35,.T.);
#130=EDGE_CURVE('',#153,#152,#36,.T.);
#131=EDGE_CURVE('',#152,#154,#37,.T.);
#132=EDGE_CURVE('',#153,#155,#38,.T.);
#133=EDGE_CURVE('',#155,#154,#39,.T.);
#134=EDGE_CURVE('',#156,#156,#164,.T.);
#135=EDGE_CURVE('',#157,#157,#165,.T.);
#136=EDGE_CURVE('',#154,#140,#40,.T.);
#137=EDGE_CURVE('',#155,#142,#41,.T.);
#138=VERTEX_POINT('',#330);
#139=VERTEX_POINT('',#332);
#140=VERTEX_POINT('',#334);
#141=VERTEX_POINT('',#335);
#142=VERTEX_POINT('',#337);
#143=VERTEX_POINT('',#339);
#144=VERTEX_POINT('',#343);
#145=VERTEX_POINT('',#345);
#146=VERTEX_POINT('',#349);
#147=VERTEX_POINT('',#351);
#148=VERTEX_POINT('',#353);
#149=VERTEX_POINT('',#355);
#150=VERTEX_POINT('',#359);
#151=VERTEX_POINT('',#361);
#152=VERTEX_POINT('',#363);
#153=VERTEX_POINT('',#365);
#154=VERTEX_POINT('',#369);
#155=VERTEX_POINT('',#371);
#156=VERTEX_POINT('',#375);
#157=VERTEX_POINT('',#377);
#158=CIRCLE('',#248,2.15265);
#159=CIRCLE('',#249,2.15265);
#160=CIRCLE('',#252,2.15265);
#161=CIRCLE('',#253,2.15265);
#162=CIRCLE('',#255,2.15265);
#163=CIRCLE('',#256,2.15265);
#164=CIRCLE('',#259,2.15265);
#165=CIRCLE('',#260,2.15265);
#166=EDGE_LOOP('',(#60));
#167=EDGE_LOOP('',(#61));
#168=EDGE_LOOP('',(#62,#63,#64,#65));
#169=EDGE_LOOP('',(#66,#67,#68,#69));
#170=EDGE_LOOP('',(#70));
#171=EDGE_LOOP('',(#71));
#172=EDGE_LOOP('',(#72,#73,#74,#75));
#173=EDGE_LOOP('',(#76));
#174=EDGE_LOOP('',(#77));
#175=EDGE_LOOP('',(#78,#79,#80,#81));
#176=EDGE_LOOP('',(#82,#83,#84,#85));
#177=EDGE_LOOP('',(#86));
#178=EDGE_LOOP('',(#87));
#179=EDGE_LOOP('',(#88,#89,#90,#91));
#180=EDGE_LOOP('',(#92,#93,#94,#95,#96,#97));
#181=EDGE_LOOP('',(#98,#99,#100,#101,#102,#103));
#182=EDGE_LOOP('',(#104));
#183=EDGE_LOOP('',(#105));
#184=EDGE_LOOP('',(#106));
#185=EDGE_LOOP('',(#107));
#186=EDGE_LOOP('',(#108));
#187=EDGE_LOOP('',(#109));
#188=EDGE_LOOP('',(#110));
#189=EDGE_LOOP('',(#111));
#190=FACE_BOUND('',#166,.T.);
#191=FACE_BOUND('',#167,.T.);
#192=FACE_BOUND('',#168,.T.);
#193=FACE_BOUND('',#169,.T.);
#194=FACE_BOUND('',#170,.T.);
#195=FACE_BOUND('',#171,.T.);
#196=FACE_BOUND('',#172,.T.);
#197=FACE_BOUND('',#173,.T.);
#198=FACE_BOUND('',#174,.T.);
#199=FACE_BOUND('',#175,.T.);
#200=FACE_BOUND('',#176,.T.);
#201=FACE_BOUND('',#177,.T.);
#202=FACE_BOUND('',#178,.T.);
#203=FACE_BOUND('',#179,.T.);
#204=FACE_BOUND('',#180,.T.);
#205=FACE_BOUND('',#181,.T.);
#206=FACE_BOUND('',#182,.T.);
#207=FACE_BOUND('',#183,.T.);
#208=FACE_BOUND('',#184,.T.);
#209=FACE_BOUND('',#185,.T.);
#210=FACE_BOUND('',#186,.T.);
#211=FACE_BOUND('',#187,.T.);
#212=FACE_BOUND('',#188,.T.);
#213=FACE_BOUND('',#189,.T.);
#214=PLANE('',#247);
#215=PLANE('',#250);
#216=PLANE('',#251);
#217=PLANE('',#254);
#218=PLANE('',#257);
#219=PLANE('',#258);
#220=PLANE('',#261);
#221=PLANE('',#262);
#222=ADVANCED_FACE('',(#190,#191,#192),#214,.T.);
#223=ADVANCED_FACE('',(#193),#215,.T.);
#224=ADVANCED_FACE('',(#194,#195,#196),#216,.T.);
#225=ADVANCED_FACE('',(#197,#198,#199),#217,.T.);
#226=ADVANCED_FACE('',(#200),#218,.T.);
#227=ADVANCED_FACE('',(#201,#202,#203),#219,.T.);
#228=ADVANCED_FACE('',(#204),#220,.F.);
#229=ADVANCED_FACE('',(#205),#221,.T.);
#230=ADVANCED_FACE('',(#206,#207),#20,.F.);
#231=ADVANCED_FACE('',(#208,#209),#21,.F.);
#232=ADVANCED_FACE('',(#210,#211),#22,.F.);
#233=ADVANCED_FACE('',(#212,#213),#23,.F.);
#234=CLOSED_SHELL('',(#222,#223,#224,#225,#226,#227,#228,#229,#230,#231,
#232,#233));
#235=STYLED_ITEM('',(#236),#243);
#236=PRESENTATION_STYLE_ASSIGNMENT((#237));
#237=SURFACE_STYLE_USAGE(.BOTH.,#238);
#238=SURFACE_SIDE_STYLE('',(#239));
#239=SURFACE_STYLE_FILL_AREA(#240);
#240=FILL_AREA_STYLE('',(#241));
#241=FILL_AREA_STYLE_COLOUR('',#242);
#242=COLOUR_RGB('',0.645180702209473,0.678915679454803,0.699999988079071);
#243=MANIFOLD_SOLID_BREP('',#234);
#244=SHAPE_DEFINITION_REPRESENTATION(#392,#245);
#245=SHAPE_REPRESENTATION('DetectorLegSupports',(#246),#387);
#246=AXIS2_PLACEMENT_3D('',#327,#267,#268);
#247=AXIS2_PLACEMENT_3D('',#328,#269,#270);
#248=AXIS2_PLACEMENT_3D('',#329,#271,#272);
#249=AXIS2_PLACEMENT_3D('',#331,#273,#274);
#250=AXIS2_PLACEMENT_3D('',#341,#279,#280);
#251=AXIS2_PLACEMENT_3D('',#347,#284,#285);
#252=AXIS2_PLACEMENT_3D('',#348,#286,#287);
#253=AXIS2_PLACEMENT_3D('',#350,#288,#289);
#254=AXIS2_PLACEMENT_3D('',#357,#293,#294);
#255=AXIS2_PLACEMENT_3D('',#358,#295,#296);
#256=AXIS2_PLACEMENT_3D('',#360,#297,#298);
#257=AXIS2_PLACEMENT_3D('',#367,#302,#303);
#258=AXIS2_PLACEMENT_3D('',#373,#307,#308);
#259=AXIS2_PLACEMENT_3D('',#374,#309,#310);
#260=AXIS2_PLACEMENT_3D('',#376,#311,#312);
#261=AXIS2_PLACEMENT_3D('',#380,#315,#316);
#262=AXIS2_PLACEMENT_3D('',#381,#317,#318);
#263=AXIS2_PLACEMENT_3D('',#382,#319,#320);
#264=AXIS2_PLACEMENT_3D('',#383,#321,#322);
#265=AXIS2_PLACEMENT_3D('',#384,#323,#324);
#266=AXIS2_PLACEMENT_3D('',#385,#325,#326);
#267=DIRECTION('',(0.,0.,1.));
#268=DIRECTION('',(1.,0.,0.));
#269=DIRECTION('',(1.,0.,-1.06238533086944E-16));
#270=DIRECTION('',(-1.06238533086944E-16,0.,-1.));
#271=DIRECTION('',(1.,0.,-1.06238533086944E-16));
#272=DIRECTION('',(-1.06238533086944E-16,0.,-1.));
#273=DIRECTION('',(1.,0.,-1.06238533086944E-16));
#274=DIRECTION('',(-1.06238533086944E-16,0.,-1.));
#275=DIRECTION('',(1.06238533086944E-16,0.,1.));
#276=DIRECTION('',(0.,-1.,0.));
#277=DIRECTION('',(1.06238533086944E-16,0.,1.));
#278=DIRECTION('',(0.,-1.,0.));
#279=DIRECTION('',(0.,0.,1.));
#280=DIRECTION('',(1.,0.,0.));
#281=DIRECTION('',(-1.,0.,0.));
#282=DIRECTION('',(-1.,0.,0.));
#283=DIRECTION('',(0.,-1.,0.));
#284=DIRECTION('',(-1.,0.,1.84399739572338E-16));
#285=DIRECTION('',(1.84399739572338E-16,0.,1.));
#286=DIRECTION('',(1.,0.,-1.84399739572338E-16));
#287=DIRECTION('',(1.84399739572338E-16,0.,1.));
#288=DIRECTION('',(1.,0.,-1.84399739572338E-16));
#289=DIRECTION('',(1.84399739572338E-16,0.,1.));
#290=DIRECTION('',(-1.84399739572338E-16,0.,-1.));
#291=DIRECTION('',(-1.84399739572338E-16,0.,-1.));
#292=DIRECTION('',(0.,-1.,0.));
#293=DIRECTION('',(0.,0.,-1.));
#294=DIRECTION('',(-1.,0.,0.));
#295=DIRECTION('',(0.,0.,-1.));
#296=DIRECTION('',(-1.,0.,0.));
#297=DIRECTION('',(0.,0.,-1.));
#298=DIRECTION('',(-1.,0.,0.));
#299=DIRECTION('',(1.,0.,0.));
#300=DIRECTION('',(1.,0.,0.));
#301=DIRECTION('',(0.,-1.,0.));
#302=DIRECTION('',(1.,0.,0.));
#303=DIRECTION('',(0.,0.,-1.));
#304=DIRECTION('',(0.,0.,1.));
#305=DIRECTION('',(0.,0.,1.));
#306=DIRECTION('',(0.,-1.,0.));
#307=DIRECTION('',(1.21415466385078E-16,0.,1.));
#308=DIRECTION('',(1.,0.,-1.21415466385078E-16));
#309=DIRECTION('',(-1.21415466385078E-16,0.,-1.));
#310=DIRECTION('',(1.,0.,-1.21415466385078E-16));
#311=DIRECTION('',(-1.21415466385078E-16,0.,-1.));
#312=DIRECTION('',(1.,0.,-1.21415466385078E-16));
#313=DIRECTION('',(-1.,0.,1.21415466385078E-16));
#314=DIRECTION('',(-1.,0.,1.21415466385078E-16));
#315=DIRECTION('',(0.,-1.,0.));
#316=DIRECTION('',(0.,0.,-1.));
#317=DIRECTION('',(0.,-1.,0.));
#318=DIRECTION('',(0.,0.,-1.));
#319=DIRECTION('',(-1.21415466385078E-16,0.,-1.));
#320=DIRECTION('',(1.,0.,-1.21415466385078E-16));
#321=DIRECTION('',(-1.21415466385078E-16,0.,-1.));
#322=DIRECTION('',(1.,0.,-1.21415466385078E-16));
#323=DIRECTION('',(1.,0.,-1.84399739572338E-16));
#324=DIRECTION('',(1.84399739572338E-16,0.,1.));
#325=DIRECTION('',(1.,0.,-1.84399739572338E-16));
#326=DIRECTION('',(1.84399739572338E-16,0.,1.));
#327=CARTESIAN_POINT('',(0.,0.,0.));
#328=CARTESIAN_POINT('',(4.01439548284954,12.7,20.8523121055409));
#329=CARTESIAN_POINT('',(4.01439548284954,5.73729553835866,65.286524550889));
#330=CARTESIAN_POINT('',(4.01439548284954,5.73729553835866,63.133874550889));
#331=CARTESIAN_POINT('',(4.01439548284954,5.70666031527658,39.886524550889));
#332=CARTESIAN_POINT('',(4.01439548284954,5.70666031527658,37.733874550889));
#333=CARTESIAN_POINT('',(4.01439548284954,0.,20.8523121055409));
#334=CARTESIAN_POINT('',(4.01439548284954,0.,20.836524550889));
#335=CARTESIAN_POINT('',(4.01439548284954,0.,77.986524550889));
#336=CARTESIAN_POINT('',(4.01439548284954,12.7,20.836524550889));
#337=CARTESIAN_POINT('',(4.01439548284954,12.7,20.836524550889));
#338=CARTESIAN_POINT('',(4.01439548284954,12.7,20.8523121055409));
#339=CARTESIAN_POINT('',(4.01439548284954,12.7,77.986524550889));
#340=CARTESIAN_POINT('',(4.01439548284954,12.7,77.986524550889));
#341=CARTESIAN_POINT('',(4.01439548284954,12.7,77.986524550889));
#342=CARTESIAN_POINT('',(4.01439548284954,0.,77.986524550889));
#343=CARTESIAN_POINT('',(-2.33560451715045,0.,77.986524550889));
#344=CARTESIAN_POINT('',(4.01439548284954,12.7,77.986524550889));
#345=CARTESIAN_POINT('',(-2.33560451715045,12.7,77.986524550889));
#346=CARTESIAN_POINT('',(-2.33560451715045,12.7,77.986524550889));
#347=CARTESIAN_POINT('',(-2.33560451715045,12.7,78.0023121055409));
#348=CARTESIAN_POINT('',(-2.33560451715045,5.73729553835866,65.286524550889));
#349=CARTESIAN_POINT('',(-2.33560451715045,5.73729553835866,67.439174550889));
#350=CARTESIAN_POINT('',(-2.33560451715046,5.70666031527658,39.886524550889));
#351=CARTESIAN_POINT('',(-2.33560451715046,5.70666031527658,42.039174550889));
#352=CARTESIAN_POINT('',(-2.33560451715045,0.,78.0023121055409));
#353=CARTESIAN_POINT('',(-2.33560451715046,0.,14.486524550889));
#354=CARTESIAN_POINT('',(-2.33560451715045,12.7,78.0023121055409));
#355=CARTESIAN_POINT('',(-2.33560451715046,12.7,14.486524550889));
#356=CARTESIAN_POINT('',(-2.33560451715046,12.7,14.486524550889));
#357=CARTESIAN_POINT('',(-2.33560451715046,12.7,14.486524550889));
#358=CARTESIAN_POINT('',(42.8763954828495,6.35,14.486524550889));
#359=CARTESIAN_POINT('',(40.7237454828495,6.35,14.486524550889));
#360=CARTESIAN_POINT('',(30.1763954828495,6.35,14.486524550889));
#361=CARTESIAN_POINT('',(28.0237454828495,6.35,14.486524550889));
#362=CARTESIAN_POINT('',(-2.33560451715046,0.,14.486524550889));
#363=CARTESIAN_POINT('',(61.1643954828495,0.,14.486524550889));
#364=CARTESIAN_POINT('',(-2.33560451715046,12.7,14.486524550889));
#365=CARTESIAN_POINT('',(61.1643954828495,12.7,14.486524550889));
#366=CARTESIAN_POINT('',(61.1643954828495,12.7,14.486524550889));
#367=CARTESIAN_POINT('',(61.1643954828495,12.7,14.5023121055409));
#368=CARTESIAN_POINT('',(61.1643954828495,0.,14.5023121055409));
#369=CARTESIAN_POINT('',(61.1643954828495,0.,20.836524550889));
#370=CARTESIAN_POINT('',(61.1643954828495,12.7,14.5023121055409));
#371=CARTESIAN_POINT('',(61.1643954828495,12.7,20.836524550889));
#372=CARTESIAN_POINT('',(61.1643954828495,12.7,20.836524550889));
#373=CARTESIAN_POINT('',(61.1643954828495,12.7,20.836524550889));
#374=CARTESIAN_POINT('',(42.8763954828495,6.35,20.836524550889));
#375=CARTESIAN_POINT('',(45.0290454828495,6.35,20.836524550889));
#376=CARTESIAN_POINT('',(30.1763954828495,6.35,20.836524550889));
#377=CARTESIAN_POINT('',(32.3290454828495,6.35,20.836524550889));
#378=CARTESIAN_POINT('',(61.1643954828495,0.,20.836524550889));
#379=CARTESIAN_POINT('',(61.1643954828495,12.7,20.836524550889));
#380=CARTESIAN_POINT('',(0.,12.7,0.));
#381=CARTESIAN_POINT('',(0.,0.,0.));
#382=CARTESIAN_POINT('',(30.1763954828495,6.35,20.836524550889));
#383=CARTESIAN_POINT('',(42.8763954828495,6.35,20.836524550889));
#384=CARTESIAN_POINT('',(-2.33560451715046,5.70666031527658,39.886524550889));
#385=CARTESIAN_POINT('',(-2.33560451715045,5.73729553835866,65.286524550889));
#386=MECHANICAL_DESIGN_GEOMETRIC_PRESENTATION_REPRESENTATION('',(#235),
#387);
#387=(
GEOMETRIC_REPRESENTATION_CONTEXT(3)
GLOBAL_UNCERTAINTY_ASSIGNED_CONTEXT((#388))
GLOBAL_UNIT_ASSIGNED_CONTEXT((#391,#390,#389))
REPRESENTATION_CONTEXT('DetectorLegSupports','TOP_LEVEL_ASSEMBLY_PART')
);
#388=UNCERTAINTY_MEASURE_WITH_UNIT(LENGTH_MEASURE(0.005),#391,
'DISTANCE_ACCURACY_VALUE','Maximum Tolerance applied to model');
#389=(
NAMED_UNIT(*)
SI_UNIT($,.STERADIAN.)
SOLID_ANGLE_UNIT()
);
#390=(
NAMED_UNIT(*)
PLANE_ANGLE_UNIT()
SI_UNIT($,.RADIAN.)
);
#391=(
LENGTH_UNIT()
NAMED_UNIT(*)
SI_UNIT(.MILLI.,.METRE.)
);
#392=PRODUCT_DEFINITION_SHAPE('','',#393);
#393=PRODUCT_DEFINITION('','',#395,#394);
#394=PRODUCT_DEFINITION_CONTEXT('',#401,'design');
#395=PRODUCT_DEFINITION_FORMATION_WITH_SPECIFIED_SOURCE('','',#397,
 .NOT_KNOWN.);
#396=PRODUCT_RELATED_PRODUCT_CATEGORY('','',(#397));
#397=PRODUCT('DetectorLegSupports','DetectorLegSupports',
'DetectorLegSupports',(#399));
#398=PRODUCT_CATEGORY('','');
#399=PRODUCT_CONTEXT('',#401,'mechanical');
#400=APPLICATION_PROTOCOL_DEFINITION('international standard',
'automotive_design',2010,#401);
#401=APPLICATION_CONTEXT(
'core data for automotive mechanical design processes');
ENDSEC;
END-ISO-10303-21;
