ISO-10303-21;
HEADER;
FILE_DESCRIPTION( ( 'Unknown' ), '1' );
FILE_NAME( 'C:/Users/dugger/Dropbox/labShareRobert/cadToGo/LongRail.stp', 'Unknown', ( 'Unknown' ), ( 'Unknown' ), 'PSStep 16.0.42', 'Unknown', '  ' );
FILE_SCHEMA( ( 'AUTOMOTIVE_DESIGN { 1 0 10303 214 1 1 1 1 }' ) );
ENDSEC;
DATA;
#1 = MECHANICAL_DESIGN_GEOMETRIC_PRESENTATION_REPRESENTATION( ' ', ( #10, #11, #12, #13, #14, #15, #16, #17, #18, #19, #20, #21, #22 ), #6 );
#2 = PRODUCT_DEFINITION_CONTEXT( '', #23, 'design' );
#3 = APPLICATION_PROTOCOL_DEFINITION( 'international standard', 'automotive_design', 2001, #23 );
#4 = PRODUCT_CATEGORY_RELATIONSHIP( 'NONE', 'NONE', #24, #25 );
#5 = SHAPE_DEFINITION_REPRESENTATION( #26, #27 );
#6 =  ( GEOMETRIC_REPRESENTATION_CONTEXT( 3 )GLOBAL_UNCERTAINTY_ASSIGNED_CONTEXT( ( #30 ) )GLOBAL_UNIT_ASSIGNED_CONTEXT( ( #32, #33, #34 ) )REPRESENTATION_CONTEXT( 'NONE', 'WORKSPACE' ) );
#10 = STYLED_ITEM( '', ( #36 ), #37 );
#11 = STYLED_ITEM( '', ( #38 ), #39 );
#12 = STYLED_ITEM( '', ( #40 ), #41 );
#13 = STYLED_ITEM( '', ( #42 ), #43 );
#14 = STYLED_ITEM( '', ( #44 ), #45 );
#15 = STYLED_ITEM( '', ( #46 ), #47 );
#16 = STYLED_ITEM( '', ( #48 ), #49 );
#17 = STYLED_ITEM( '', ( #50 ), #51 );
#18 = STYLED_ITEM( '', ( #52 ), #53 );
#19 = STYLED_ITEM( '', ( #54 ), #55 );
#20 = STYLED_ITEM( '', ( #56 ), #57 );
#21 = STYLED_ITEM( '', ( #58 ), #59 );
#22 = STYLED_ITEM( '', ( #60 ), #61 );
#23 = APPLICATION_CONTEXT( 'core data for automotive mechanical design processes' );
#24 = PRODUCT_CATEGORY( 'part', 'NONE' );
#25 = PRODUCT_RELATED_PRODUCT_CATEGORY( 'detail', ' ', ( #62 ) );
#26 = PRODUCT_DEFINITION_SHAPE( 'NONE', 'NONE', #63 );
#27 = ADVANCED_BREP_SHAPE_REPRESENTATION( '1', ( #64, #65 ), #6 );
#30 = UNCERTAINTY_MEASURE_WITH_UNIT( LENGTH_MEASURE( 0.00100000000000000 ), #32, '', '' );
#32 =  ( CONVERSION_BASED_UNIT( 'MILLIMETRE', #68 )LENGTH_UNIT(  )NAMED_UNIT( #71 ) );
#33 =  ( NAMED_UNIT( #73 )PLANE_ANGLE_UNIT(  )SI_UNIT( $, .RADIAN. ) );
#34 =  ( NAMED_UNIT( #73 )SI_UNIT( $, .STERADIAN. )SOLID_ANGLE_UNIT(  ) );
#36 = PRESENTATION_STYLE_ASSIGNMENT( ( #79 ) );
#37 = ADVANCED_FACE( '', ( #80, #81 ), #82, .F. );
#38 = PRESENTATION_STYLE_ASSIGNMENT( ( #83 ) );
#39 = ADVANCED_FACE( '', ( #84 ), #85, .F. );
#40 = PRESENTATION_STYLE_ASSIGNMENT( ( #86 ) );
#41 = ADVANCED_FACE( '', ( #87, #88, #89, #90, #91, #92, #93, #94 ), #95, .T. );
#42 = PRESENTATION_STYLE_ASSIGNMENT( ( #96 ) );
#43 = ADVANCED_FACE( '', ( #97 ), #98, .F. );
#44 = PRESENTATION_STYLE_ASSIGNMENT( ( #99 ) );
#45 = ADVANCED_FACE( '', ( #100, #101 ), #102, .F. );
#46 = PRESENTATION_STYLE_ASSIGNMENT( ( #103 ) );
#47 = ADVANCED_FACE( '', ( #104, #105 ), #106, .F. );
#48 = PRESENTATION_STYLE_ASSIGNMENT( ( #107 ) );
#49 = ADVANCED_FACE( '', ( #108, #109 ), #110, .F. );
#50 = PRESENTATION_STYLE_ASSIGNMENT( ( #111 ) );
#51 = ADVANCED_FACE( '', ( #112, #113 ), #114, .F. );
#52 = PRESENTATION_STYLE_ASSIGNMENT( ( #115 ) );
#53 = ADVANCED_FACE( '', ( #116, #117 ), #118, .F. );
#54 = PRESENTATION_STYLE_ASSIGNMENT( ( #119 ) );
#55 = ADVANCED_FACE( '', ( #120, #121 ), #122, .F. );
#56 = PRESENTATION_STYLE_ASSIGNMENT( ( #123 ) );
#57 = ADVANCED_FACE( '', ( #124 ), #125, .F. );
#58 = PRESENTATION_STYLE_ASSIGNMENT( ( #126 ) );
#59 = ADVANCED_FACE( '', ( #127 ), #128, .F. );
#60 = PRESENTATION_STYLE_ASSIGNMENT( ( #129 ) );
#61 = ADVANCED_FACE( '', ( #130, #131, #132, #133, #134, #135, #136, #137 ), #138, .F. );
#62 = PRODUCT( '1', '1', 'PART-1-DESC', ( #139 ) );
#63 = PRODUCT_DEFINITION( 'NONE', 'NONE', #140, #2 );
#64 = MANIFOLD_SOLID_BREP( '1', #141 );
#65 = AXIS2_PLACEMENT_3D( '', #142, #143, #144 );
#68 = LENGTH_MEASURE_WITH_UNIT( LENGTH_MEASURE( 1.00000000000000 ), #145 );
#71 = DIMENSIONAL_EXPONENTS( 1.00000000000000, 0.000000000000000, 0.000000000000000, 0.000000000000000, 0.000000000000000, 0.000000000000000, 0.000000000000000 );
#73 = DIMENSIONAL_EXPONENTS( 0.000000000000000, 0.000000000000000, 0.000000000000000, 0.000000000000000, 0.000000000000000, 0.000000000000000, 0.000000000000000 );
#79 = SURFACE_STYLE_USAGE( .BOTH., #146 );
#80 = FACE_OUTER_BOUND( '', #147, .T. );
#81 = FACE_OUTER_BOUND( '', #148, .T. );
#82 = CYLINDRICAL_SURFACE( '', #149, 1.47320000000000 );
#83 = SURFACE_STYLE_USAGE( .BOTH., #150 );
#84 = FACE_OUTER_BOUND( '', #151, .T. );
#85 = PLANE( '', #152 );
#86 = SURFACE_STYLE_USAGE( .BOTH., #153 );
#87 = FACE_BOUND( '', #154, .T. );
#88 = FACE_BOUND( '', #155, .T. );
#89 = FACE_BOUND( '', #156, .T. );
#90 = FACE_BOUND( '', #157, .T. );
#91 = FACE_BOUND( '', #158, .T. );
#92 = FACE_BOUND( '', #159, .T. );
#93 = FACE_BOUND( '', #160, .T. );
#94 = FACE_OUTER_BOUND( '', #161, .T. );
#95 = PLANE( '', #162 );
#96 = SURFACE_STYLE_USAGE( .BOTH., #163 );
#97 = FACE_OUTER_BOUND( '', #164, .T. );
#98 = PLANE( '', #165 );
#99 = SURFACE_STYLE_USAGE( .BOTH., #166 );
#100 = FACE_OUTER_BOUND( '', #167, .T. );
#101 = FACE_OUTER_BOUND( '', #168, .T. );
#102 = CYLINDRICAL_SURFACE( '', #169, 1.47320000000000 );
#103 = SURFACE_STYLE_USAGE( .BOTH., #170 );
#104 = FACE_OUTER_BOUND( '', #171, .T. );
#105 = FACE_OUTER_BOUND( '', #172, .T. );
#106 = CYLINDRICAL_SURFACE( '', #173, 1.47320000000000 );
#107 = SURFACE_STYLE_USAGE( .BOTH., #174 );
#108 = FACE_OUTER_BOUND( '', #175, .T. );
#109 = FACE_OUTER_BOUND( '', #176, .T. );
#110 = CYLINDRICAL_SURFACE( '', #177, 1.47320000000000 );
#111 = SURFACE_STYLE_USAGE( .BOTH., #178 );
#112 = FACE_OUTER_BOUND( '', #179, .T. );
#113 = FACE_OUTER_BOUND( '', #180, .T. );
#114 = CYLINDRICAL_SURFACE( '', #181, 2.15265000000000 );
#115 = SURFACE_STYLE_USAGE( .BOTH., #182 );
#116 = FACE_OUTER_BOUND( '', #183, .T. );
#117 = FACE_OUTER_BOUND( '', #184, .T. );
#118 = CYLINDRICAL_SURFACE( '', #185, 1.47320000000000 );
#119 = SURFACE_STYLE_USAGE( .BOTH., #186 );
#120 = FACE_OUTER_BOUND( '', #187, .T. );
#121 = FACE_OUTER_BOUND( '', #188, .T. );
#122 = CYLINDRICAL_SURFACE( '', #189, 2.15265000000000 );
#123 = SURFACE_STYLE_USAGE( .BOTH., #190 );
#124 = FACE_OUTER_BOUND( '', #191, .T. );
#125 = PLANE( '', #192 );
#126 = SURFACE_STYLE_USAGE( .BOTH., #193 );
#127 = FACE_OUTER_BOUND( '', #194, .T. );
#128 = PLANE( '', #195 );
#129 = SURFACE_STYLE_USAGE( .BOTH., #196 );
#130 = FACE_BOUND( '', #197, .T. );
#131 = FACE_BOUND( '', #198, .T. );
#132 = FACE_BOUND( '', #199, .T. );
#133 = FACE_BOUND( '', #200, .T. );
#134 = FACE_BOUND( '', #201, .T. );
#135 = FACE_BOUND( '', #202, .T. );
#136 = FACE_BOUND( '', #203, .T. );
#137 = FACE_OUTER_BOUND( '', #204, .T. );
#138 = PLANE( '', #205 );
#139 = PRODUCT_CONTEXT( '', #23, 'mechanical' );
#140 = PRODUCT_DEFINITION_FORMATION_WITH_SPECIFIED_SOURCE( ' ', 'NONE', #62, .NOT_KNOWN. );
#141 = CLOSED_SHELL( '', ( #41, #45, #37, #61, #59, #43, #57, #53, #47, #49, #39, #51, #55 ) );
#142 = CARTESIAN_POINT( '', ( 0.000000000000000, 0.000000000000000, 0.000000000000000 ) );
#143 = DIRECTION( '', ( 0.000000000000000, 0.000000000000000, 1.00000000000000 ) );
#144 = DIRECTION( '', ( 1.00000000000000, 0.000000000000000, 0.000000000000000 ) );
#145 =  ( LENGTH_UNIT(  )NAMED_UNIT( #71 )SI_UNIT( .MILLI., .METRE. ) );
#146 = SURFACE_SIDE_STYLE( '', ( #207 ) );
#147 = EDGE_LOOP( '', ( #208 ) );
#148 = EDGE_LOOP( '', ( #209 ) );
#149 = AXIS2_PLACEMENT_3D( '', #210, #211, #212 );
#150 = SURFACE_SIDE_STYLE( '', ( #213 ) );
#151 = EDGE_LOOP( '', ( #214, #215, #216, #217 ) );
#152 = AXIS2_PLACEMENT_3D( '', #218, #219, #220 );
#153 = SURFACE_SIDE_STYLE( '', ( #221 ) );
#154 = EDGE_LOOP( '', ( #222 ) );
#155 = EDGE_LOOP( '', ( #223 ) );
#156 = EDGE_LOOP( '', ( #224 ) );
#157 = EDGE_LOOP( '', ( #225 ) );
#158 = EDGE_LOOP( '', ( #226 ) );
#159 = EDGE_LOOP( '', ( #227 ) );
#160 = EDGE_LOOP( '', ( #228 ) );
#161 = EDGE_LOOP( '', ( #229, #230, #231, #232 ) );
#162 = AXIS2_PLACEMENT_3D( '', #233, #234, #235 );
#163 = SURFACE_SIDE_STYLE( '', ( #236 ) );
#164 = EDGE_LOOP( '', ( #237, #238, #239, #240 ) );
#165 = AXIS2_PLACEMENT_3D( '', #241, #242, #243 );
#166 = SURFACE_SIDE_STYLE( '', ( #244 ) );
#167 = EDGE_LOOP( '', ( #245 ) );
#168 = EDGE_LOOP( '', ( #246 ) );
#169 = AXIS2_PLACEMENT_3D( '', #247, #248, #249 );
#170 = SURFACE_SIDE_STYLE( '', ( #250 ) );
#171 = EDGE_LOOP( '', ( #251 ) );
#172 = EDGE_LOOP( '', ( #252 ) );
#173 = AXIS2_PLACEMENT_3D( '', #253, #254, #255 );
#174 = SURFACE_SIDE_STYLE( '', ( #256 ) );
#175 = EDGE_LOOP( '', ( #257 ) );
#176 = EDGE_LOOP( '', ( #258 ) );
#177 = AXIS2_PLACEMENT_3D( '', #259, #260, #261 );
#178 = SURFACE_SIDE_STYLE( '', ( #262 ) );
#179 = EDGE_LOOP( '', ( #263 ) );
#180 = EDGE_LOOP( '', ( #264 ) );
#181 = AXIS2_PLACEMENT_3D( '', #265, #266, #267 );
#182 = SURFACE_SIDE_STYLE( '', ( #268 ) );
#183 = EDGE_LOOP( '', ( #269 ) );
#184 = EDGE_LOOP( '', ( #270 ) );
#185 = AXIS2_PLACEMENT_3D( '', #271, #272, #273 );
#186 = SURFACE_SIDE_STYLE( '', ( #274 ) );
#187 = EDGE_LOOP( '', ( #275 ) );
#188 = EDGE_LOOP( '', ( #276 ) );
#189 = AXIS2_PLACEMENT_3D( '', #277, #278, #279 );
#190 = SURFACE_SIDE_STYLE( '', ( #280 ) );
#191 = EDGE_LOOP( '', ( #281, #282, #283, #284 ) );
#192 = AXIS2_PLACEMENT_3D( '', #285, #286, #287 );
#193 = SURFACE_SIDE_STYLE( '', ( #288 ) );
#194 = EDGE_LOOP( '', ( #289, #290, #291, #292 ) );
#195 = AXIS2_PLACEMENT_3D( '', #293, #294, #295 );
#196 = SURFACE_SIDE_STYLE( '', ( #296 ) );
#197 = EDGE_LOOP( '', ( #297 ) );
#198 = EDGE_LOOP( '', ( #298 ) );
#199 = EDGE_LOOP( '', ( #299 ) );
#200 = EDGE_LOOP( '', ( #300 ) );
#201 = EDGE_LOOP( '', ( #301 ) );
#202 = EDGE_LOOP( '', ( #302 ) );
#203 = EDGE_LOOP( '', ( #303 ) );
#204 = EDGE_LOOP( '', ( #304, #305, #306, #307 ) );
#205 = AXIS2_PLACEMENT_3D( '', #308, #309, #310 );
#207 = SURFACE_STYLE_FILL_AREA( #311 );
#208 = ORIENTED_EDGE( '', *, *, #312, .F. );
#209 = ORIENTED_EDGE( '', *, *, #313, .T. );
#210 = CARTESIAN_POINT( '', ( 88.7712287780155, 124.175354239790, 4.06997233662534 ) );
#211 = DIRECTION( '', ( -0.000000000000000, 1.00000000000000, -0.000000000000000 ) );
#212 = DIRECTION( '', ( 0.000000000000000, 0.000000000000000, -1.00000000000000 ) );
#213 = SURFACE_STYLE_FILL_AREA( #314 );
#214 = ORIENTED_EDGE( '', *, *, #315, .T. );
#215 = ORIENTED_EDGE( '', *, *, #316, .F. );
#216 = ORIENTED_EDGE( '', *, *, #317, .F. );
#217 = ORIENTED_EDGE( '', *, *, #318, .T. );
#218 = CARTESIAN_POINT( '', ( 126.871228778016, -3.17500000000000, 0.000000000000000 ) );
#219 = DIRECTION( '', ( -1.00000000000000, 0.000000000000000, 0.000000000000000 ) );
#220 = DIRECTION( '', ( 0.000000000000000, 0.000000000000000, 1.00000000000000 ) );
#221 = SURFACE_STYLE_FILL_AREA( #319 );
#222 = ORIENTED_EDGE( '', *, *, #320, .F. );
#223 = ORIENTED_EDGE( '', *, *, #321, .F. );
#224 = ORIENTED_EDGE( '', *, *, #322, .F. );
#225 = ORIENTED_EDGE( '', *, *, #323, .F. );
#226 = ORIENTED_EDGE( '', *, *, #324, .F. );
#227 = ORIENTED_EDGE( '', *, *, #313, .F. );
#228 = ORIENTED_EDGE( '', *, *, #325, .F. );
#229 = ORIENTED_EDGE( '', *, *, #326, .T. );
#230 = ORIENTED_EDGE( '', *, *, #327, .T. );
#231 = ORIENTED_EDGE( '', *, *, #328, .T. );
#232 = ORIENTED_EDGE( '', *, *, #317, .T. );
#233 = CARTESIAN_POINT( '', ( 0.000000000000000, -3.17500000000000, 0.000000000000000 ) );
#234 = DIRECTION( '', ( 0.000000000000000, -1.00000000000000, 0.000000000000000 ) );
#235 = DIRECTION( '', ( 0.000000000000000, 0.000000000000000, -1.00000000000000 ) );
#236 = SURFACE_STYLE_FILL_AREA( #329 );
#237 = ORIENTED_EDGE( '', *, *, #330, .T. );
#238 = ORIENTED_EDGE( '', *, *, #331, .F. );
#239 = ORIENTED_EDGE( '', *, *, #327, .F. );
#240 = ORIENTED_EDGE( '', *, *, #332, .T. );
#241 = CARTESIAN_POINT( '', ( -25.5287712219844, -3.17500000000000, 8.89000000000000 ) );
#242 = DIRECTION( '', ( 1.00000000000000, 0.000000000000000, 0.000000000000000 ) );
#243 = DIRECTION( '', ( 0.000000000000000, 0.000000000000000, -1.00000000000000 ) );
#244 = SURFACE_STYLE_FILL_AREA( #333 );
#245 = ORIENTED_EDGE( '', *, *, #334, .F. );
#246 = ORIENTED_EDGE( '', *, *, #325, .T. );
#247 = CARTESIAN_POINT( '', ( 114.171228778015, 124.175354239790, 4.06997233662535 ) );
#248 = DIRECTION( '', ( -0.000000000000000, 1.00000000000000, -0.000000000000000 ) );
#249 = DIRECTION( '', ( 0.000000000000000, 0.000000000000000, -1.00000000000000 ) );
#250 = SURFACE_STYLE_FILL_AREA( #335 );
#251 = ORIENTED_EDGE( '', *, *, #336, .F. );
#252 = ORIENTED_EDGE( '', *, *, #322, .T. );
#253 = CARTESIAN_POINT( '', ( 12.5712287780155, 124.175354239790, 4.45556695164388 ) );
#254 = DIRECTION( '', ( -0.000000000000000, 1.00000000000000, -0.000000000000000 ) );
#255 = DIRECTION( '', ( 0.000000000000000, 0.000000000000000, -1.00000000000000 ) );
#256 = SURFACE_STYLE_FILL_AREA( #337 );
#257 = ORIENTED_EDGE( '', *, *, #338, .F. );
#258 = ORIENTED_EDGE( '', *, *, #324, .T. );
#259 = CARTESIAN_POINT( '', ( 63.3712287780155, 124.175354239790, 4.06997233662534 ) );
#260 = DIRECTION( '', ( -0.000000000000000, 1.00000000000000, -0.000000000000000 ) );
#261 = DIRECTION( '', ( 0.000000000000000, 0.000000000000000, -1.00000000000000 ) );
#262 = SURFACE_STYLE_FILL_AREA( #339 );
#263 = ORIENTED_EDGE( '', *, *, #340, .F. );
#264 = ORIENTED_EDGE( '', *, *, #321, .T. );
#265 = CARTESIAN_POINT( '', ( -19.0517712219844, 149.517084683522, 2.54597233662534 ) );
#266 = DIRECTION( '', ( -0.000000000000000, 1.00000000000000, -0.000000000000000 ) );
#267 = DIRECTION( '', ( 0.000000000000000, 0.000000000000000, -1.00000000000000 ) );
#268 = SURFACE_STYLE_FILL_AREA( #341 );
#269 = ORIENTED_EDGE( '', *, *, #342, .F. );
#270 = ORIENTED_EDGE( '', *, *, #323, .T. );
#271 = CARTESIAN_POINT( '', ( 37.9712287780155, 124.175354239790, 4.06997233662533 ) );
#272 = DIRECTION( '', ( -0.000000000000000, 1.00000000000000, -0.000000000000000 ) );
#273 = DIRECTION( '', ( 0.000000000000000, 0.000000000000000, -1.00000000000000 ) );
#274 = SURFACE_STYLE_FILL_AREA( #343 );
#275 = ORIENTED_EDGE( '', *, *, #344, .F. );
#276 = ORIENTED_EDGE( '', *, *, #320, .T. );
#277 = CARTESIAN_POINT( '', ( -6.47877122198444, 149.517084683522, 2.54597233662534 ) );
#278 = DIRECTION( '', ( -0.000000000000000, 1.00000000000000, -0.000000000000000 ) );
#279 = DIRECTION( '', ( 0.000000000000000, 0.000000000000000, -1.00000000000000 ) );
#280 = SURFACE_STYLE_FILL_AREA( #345 );
#281 = ORIENTED_EDGE( '', *, *, #346, .T. );
#282 = ORIENTED_EDGE( '', *, *, #318, .F. );
#283 = ORIENTED_EDGE( '', *, *, #328, .F. );
#284 = ORIENTED_EDGE( '', *, *, #331, .T. );
#285 = CARTESIAN_POINT( '', ( 0.000000000000000, -3.17500000000000, -2.28002766337466 ) );
#286 = DIRECTION( '', ( 0.000000000000000, 0.000000000000000, 1.00000000000000 ) );
#287 = DIRECTION( '', ( 1.00000000000000, 0.000000000000000, 0.000000000000000 ) );
#288 = SURFACE_STYLE_FILL_AREA( #347 );
#289 = ORIENTED_EDGE( '', *, *, #348, .T. );
#290 = ORIENTED_EDGE( '', *, *, #332, .F. );
#291 = ORIENTED_EDGE( '', *, *, #326, .F. );
#292 = ORIENTED_EDGE( '', *, *, #316, .T. );
#293 = CARTESIAN_POINT( '', ( 127.000000000000, -3.17500000000000, 6.60997233662535 ) );
#294 = DIRECTION( '', ( -1.22933159714892E-016, 0.000000000000000, -1.00000000000000 ) );
#295 = DIRECTION( '', ( -1.00000000000000, 0.000000000000000, 1.22933159714892E-016 ) );
#296 = SURFACE_STYLE_FILL_AREA( #349 );
#297 = ORIENTED_EDGE( '', *, *, #344, .T. );
#298 = ORIENTED_EDGE( '', *, *, #340, .T. );
#299 = ORIENTED_EDGE( '', *, *, #336, .T. );
#300 = ORIENTED_EDGE( '', *, *, #342, .T. );
#301 = ORIENTED_EDGE( '', *, *, #338, .T. );
#302 = ORIENTED_EDGE( '', *, *, #312, .T. );
#303 = ORIENTED_EDGE( '', *, *, #334, .T. );
#304 = ORIENTED_EDGE( '', *, *, #348, .F. );
#305 = ORIENTED_EDGE( '', *, *, #315, .F. );
#306 = ORIENTED_EDGE( '', *, *, #346, .F. );
#307 = ORIENTED_EDGE( '', *, *, #330, .F. );
#308 = CARTESIAN_POINT( '', ( 0.000000000000000, 0.000000000000000, 0.000000000000000 ) );
#309 = DIRECTION( '', ( 0.000000000000000, -1.00000000000000, 0.000000000000000 ) );
#310 = DIRECTION( '', ( 0.000000000000000, 0.000000000000000, -1.00000000000000 ) );
#311 = FILL_AREA_STYLE( '', ( #350 ) );
#312 = EDGE_CURVE( '', #351, #351, #352, .T. );
#313 = EDGE_CURVE( '', #353, #353, #354, .T. );
#314 = FILL_AREA_STYLE( '', ( #355 ) );
#315 = EDGE_CURVE( '', #356, #357, #358, .T. );
#316 = EDGE_CURVE( '', #359, #357, #360, .T. );
#317 = EDGE_CURVE( '', #361, #359, #362, .T. );
#318 = EDGE_CURVE( '', #361, #356, #363, .T. );
#319 = FILL_AREA_STYLE( '', ( #364 ) );
#320 = EDGE_CURVE( '', #365, #365, #366, .T. );
#321 = EDGE_CURVE( '', #367, #367, #368, .T. );
#322 = EDGE_CURVE( '', #369, #369, #370, .T. );
#323 = EDGE_CURVE( '', #371, #371, #372, .T. );
#324 = EDGE_CURVE( '', #373, #373, #374, .T. );
#325 = EDGE_CURVE( '', #375, #375, #376, .T. );
#326 = EDGE_CURVE( '', #359, #377, #378, .T. );
#327 = EDGE_CURVE( '', #377, #379, #380, .T. );
#328 = EDGE_CURVE( '', #379, #361, #381, .T. );
#329 = FILL_AREA_STYLE( '', ( #382 ) );
#330 = EDGE_CURVE( '', #383, #384, #385, .T. );
#331 = EDGE_CURVE( '', #379, #384, #386, .T. );
#332 = EDGE_CURVE( '', #377, #383, #387, .T. );
#333 = FILL_AREA_STYLE( '', ( #388 ) );
#334 = EDGE_CURVE( '', #389, #389, #390, .T. );
#335 = FILL_AREA_STYLE( '', ( #391 ) );
#336 = EDGE_CURVE( '', #392, #392, #393, .T. );
#337 = FILL_AREA_STYLE( '', ( #394 ) );
#338 = EDGE_CURVE( '', #395, #395, #396, .T. );
#339 = FILL_AREA_STYLE( '', ( #397 ) );
#340 = EDGE_CURVE( '', #398, #398, #399, .T. );
#341 = FILL_AREA_STYLE( '', ( #400 ) );
#342 = EDGE_CURVE( '', #401, #401, #402, .T. );
#343 = FILL_AREA_STYLE( '', ( #403 ) );
#344 = EDGE_CURVE( '', #404, #404, #405, .T. );
#345 = FILL_AREA_STYLE( '', ( #406 ) );
#346 = EDGE_CURVE( '', #384, #356, #407, .T. );
#347 = FILL_AREA_STYLE( '', ( #408 ) );
#348 = EDGE_CURVE( '', #357, #383, #409, .T. );
#349 = FILL_AREA_STYLE( '', ( #410 ) );
#350 = FILL_AREA_STYLE_COLOUR( '', #411 );
#351 = VERTEX_POINT( '', #412 );
#352 = CIRCLE( '', #413, 1.47320000000000 );
#353 = VERTEX_POINT( '', #414 );
#354 = CIRCLE( '', #415, 1.47320000000000 );
#355 = FILL_AREA_STYLE_COLOUR( '', #416 );
#356 = VERTEX_POINT( '', #417 );
#357 = VERTEX_POINT( '', #418 );
#358 = LINE( '', #419, #420 );
#359 = VERTEX_POINT( '', #421 );
#360 = LINE( '', #422, #423 );
#361 = VERTEX_POINT( '', #424 );
#362 = LINE( '', #425, #426 );
#363 = LINE( '', #427, #428 );
#364 = FILL_AREA_STYLE_COLOUR( '', #429 );
#365 = VERTEX_POINT( '', #430 );
#366 = CIRCLE( '', #431, 2.15265000000000 );
#367 = VERTEX_POINT( '', #432 );
#368 = CIRCLE( '', #433, 2.15265000000000 );
#369 = VERTEX_POINT( '', #434 );
#370 = CIRCLE( '', #435, 1.47320000000000 );
#371 = VERTEX_POINT( '', #436 );
#372 = CIRCLE( '', #437, 1.47320000000000 );
#373 = VERTEX_POINT( '', #438 );
#374 = CIRCLE( '', #439, 1.47320000000000 );
#375 = VERTEX_POINT( '', #440 );
#376 = CIRCLE( '', #441, 1.47320000000000 );
#377 = VERTEX_POINT( '', #442 );
#378 = LINE( '', #443, #444 );
#379 = VERTEX_POINT( '', #445 );
#380 = LINE( '', #446, #447 );
#381 = LINE( '', #448, #449 );
#382 = FILL_AREA_STYLE_COLOUR( '', #450 );
#383 = VERTEX_POINT( '', #451 );
#384 = VERTEX_POINT( '', #452 );
#385 = LINE( '', #453, #454 );
#386 = LINE( '', #455, #456 );
#387 = LINE( '', #457, #458 );
#388 = FILL_AREA_STYLE_COLOUR( '', #459 );
#389 = VERTEX_POINT( '', #460 );
#390 = CIRCLE( '', #461, 1.47320000000000 );
#391 = FILL_AREA_STYLE_COLOUR( '', #462 );
#392 = VERTEX_POINT( '', #463 );
#393 = CIRCLE( '', #464, 1.47320000000000 );
#394 = FILL_AREA_STYLE_COLOUR( '', #465 );
#395 = VERTEX_POINT( '', #466 );
#396 = CIRCLE( '', #467, 1.47320000000000 );
#397 = FILL_AREA_STYLE_COLOUR( '', #468 );
#398 = VERTEX_POINT( '', #469 );
#399 = CIRCLE( '', #470, 2.15265000000000 );
#400 = FILL_AREA_STYLE_COLOUR( '', #471 );
#401 = VERTEX_POINT( '', #472 );
#402 = CIRCLE( '', #473, 1.47320000000000 );
#403 = FILL_AREA_STYLE_COLOUR( '', #474 );
#404 = VERTEX_POINT( '', #475 );
#405 = CIRCLE( '', #476, 2.15265000000000 );
#406 = FILL_AREA_STYLE_COLOUR( '', #477 );
#407 = LINE( '', #478, #479 );
#408 = FILL_AREA_STYLE_COLOUR( '', #480 );
#409 = LINE( '', #481, #482 );
#410 = FILL_AREA_STYLE_COLOUR( '', #483 );
#411 = COLOUR_RGB( '', 0.643137276172638, 0.678431391716003, 0.698039233684540 );
#412 = CARTESIAN_POINT( '', ( 88.7712287780155, 4.33680868994202E-016, 2.59677233662534 ) );
#413 = AXIS2_PLACEMENT_3D( '', #484, #485, #486 );
#414 = CARTESIAN_POINT( '', ( 90.2444287780155, -3.17500000000000, 4.06997233662534 ) );
#415 = AXIS2_PLACEMENT_3D( '', #487, #488, #489 );
#416 = COLOUR_RGB( '', 0.643137276172638, 0.678431391716003, 0.698039233684540 );
#417 = CARTESIAN_POINT( '', ( 126.871228778016, 0.000000000000000, -2.28002766337466 ) );
#418 = CARTESIAN_POINT( '', ( 126.871228778016, 0.000000000000000, 6.60997233662535 ) );
#419 = CARTESIAN_POINT( '', ( 126.871228778016, 0.000000000000000, 0.000000000000000 ) );
#420 = VECTOR( '', #490, 1000.00000000000 );
#421 = CARTESIAN_POINT( '', ( 126.871228778016, -3.17500000000000, 6.60997233662535 ) );
#422 = CARTESIAN_POINT( '', ( 126.871228778016, -3.17500000000000, 6.60997233662535 ) );
#423 = VECTOR( '', #491, 1000.00000000000 );
#424 = CARTESIAN_POINT( '', ( 126.871228778016, -3.17500000000000, -2.28002766337466 ) );
#425 = CARTESIAN_POINT( '', ( 126.871228778016, -3.17500000000000, 0.000000000000000 ) );
#426 = VECTOR( '', #492, 1000.00000000000 );
#427 = CARTESIAN_POINT( '', ( 126.871228778016, -3.17500000000000, -2.28002766337466 ) );
#428 = VECTOR( '', #493, 1000.00000000000 );
#429 = COLOUR_RGB( '', 0.643137276172638, 0.678431391716003, 0.698039233684540 );
#430 = CARTESIAN_POINT( '', ( -4.32612122198444, -3.17500000000000, 2.54597233662534 ) );
#431 = AXIS2_PLACEMENT_3D( '', #494, #495, #496 );
#432 = CARTESIAN_POINT( '', ( -16.8991212219845, -3.17500000000000, 2.54597233662534 ) );
#433 = AXIS2_PLACEMENT_3D( '', #497, #498, #499 );
#434 = CARTESIAN_POINT( '', ( 14.0444287780155, -3.17500000000000, 4.45556695164388 ) );
#435 = AXIS2_PLACEMENT_3D( '', #500, #501, #502 );
#436 = CARTESIAN_POINT( '', ( 39.4444287780155, -3.17500000000000, 4.06997233662533 ) );
#437 = AXIS2_PLACEMENT_3D( '', #503, #504, #505 );
#438 = CARTESIAN_POINT( '', ( 64.8444287780155, -3.17500000000000, 4.06997233662534 ) );
#439 = AXIS2_PLACEMENT_3D( '', #506, #507, #508 );
#440 = CARTESIAN_POINT( '', ( 115.644428778015, -3.17500000000000, 4.06997233662535 ) );
#441 = AXIS2_PLACEMENT_3D( '', #509, #510, #511 );
#442 = CARTESIAN_POINT( '', ( -25.5287712219844, -3.17500000000000, 6.60997233662537 ) );
#443 = CARTESIAN_POINT( '', ( 127.000000000000, -3.17500000000000, 6.60997233662535 ) );
#444 = VECTOR( '', #512, 1000.00000000000 );
#445 = CARTESIAN_POINT( '', ( -25.5287712219844, -3.17500000000000, -2.28002766337466 ) );
#446 = CARTESIAN_POINT( '', ( -25.5287712219844, -3.17500000000000, 8.89000000000000 ) );
#447 = VECTOR( '', #513, 1000.00000000000 );
#448 = CARTESIAN_POINT( '', ( 0.000000000000000, -3.17500000000000, -2.28002766337466 ) );
#449 = VECTOR( '', #514, 1000.00000000000 );
#450 = COLOUR_RGB( '', 0.643137276172638, 0.678431391716003, 0.698039233684540 );
#451 = CARTESIAN_POINT( '', ( -25.5287712219844, 0.000000000000000, 6.60997233662537 ) );
#452 = CARTESIAN_POINT( '', ( -25.5287712219844, 0.000000000000000, -2.28002766337466 ) );
#453 = CARTESIAN_POINT( '', ( -25.5287712219844, 0.000000000000000, 8.89000000000000 ) );
#454 = VECTOR( '', #515, 1000.00000000000 );
#455 = CARTESIAN_POINT( '', ( -25.5287712219844, -3.17500000000000, -2.28002766337466 ) );
#456 = VECTOR( '', #516, 1000.00000000000 );
#457 = CARTESIAN_POINT( '', ( -25.5287712219844, -3.17500000000000, 6.60997233662536 ) );
#458 = VECTOR( '', #517, 1000.00000000000 );
#459 = COLOUR_RGB( '', 0.643137276172638, 0.678431391716003, 0.698039233684540 );
#460 = CARTESIAN_POINT( '', ( 114.171228778015, 4.33680868994202E-016, 2.59677233662535 ) );
#461 = AXIS2_PLACEMENT_3D( '', #518, #519, #520 );
#462 = COLOUR_RGB( '', 0.643137276172638, 0.678431391716003, 0.698039233684540 );
#463 = CARTESIAN_POINT( '', ( 12.5712287780155, 4.33680868994202E-016, 2.98236695164388 ) );
#464 = AXIS2_PLACEMENT_3D( '', #521, #522, #523 );
#465 = COLOUR_RGB( '', 0.643137276172638, 0.678431391716003, 0.698039233684540 );
#466 = CARTESIAN_POINT( '', ( 63.3712287780155, 4.33680868994202E-016, 2.59677233662534 ) );
#467 = AXIS2_PLACEMENT_3D( '', #524, #525, #526 );
#468 = COLOUR_RGB( '', 0.643137276172638, 0.678431391716003, 0.698039233684540 );
#469 = CARTESIAN_POINT( '', ( -19.0517712219844, 0.000000000000000, 0.393322336625345 ) );
#470 = AXIS2_PLACEMENT_3D( '', #527, #528, #529 );
#471 = COLOUR_RGB( '', 0.643137276172638, 0.678431391716003, 0.698039233684540 );
#472 = CARTESIAN_POINT( '', ( 37.9712287780155, 4.33680868994202E-016, 2.59677233662534 ) );
#473 = AXIS2_PLACEMENT_3D( '', #530, #531, #532 );
#474 = COLOUR_RGB( '', 0.643137276172638, 0.678431391716003, 0.698039233684540 );
#475 = CARTESIAN_POINT( '', ( -6.47877122198444, 0.000000000000000, 0.393322336625345 ) );
#476 = AXIS2_PLACEMENT_3D( '', #533, #534, #535 );
#477 = COLOUR_RGB( '', 0.643137276172638, 0.678431391716003, 0.698039233684540 );
#478 = CARTESIAN_POINT( '', ( 0.000000000000000, 0.000000000000000, -2.28002766337466 ) );
#479 = VECTOR( '', #536, 1000.00000000000 );
#480 = COLOUR_RGB( '', 0.643137276172638, 0.678431391716003, 0.698039233684540 );
#481 = CARTESIAN_POINT( '', ( 127.000000000000, 0.000000000000000, 6.60997233662535 ) );
#482 = VECTOR( '', #537, 1000.00000000000 );
#483 = COLOUR_RGB( '', 0.643137276172638, 0.678431391716003, 0.698039233684540 );
#484 = CARTESIAN_POINT( '', ( 88.7712287780155, 4.33680868994202E-016, 4.06997233662534 ) );
#485 = DIRECTION( '', ( 0.000000000000000, -1.00000000000000, 0.000000000000000 ) );
#486 = DIRECTION( '', ( 0.000000000000000, 0.000000000000000, -1.00000000000000 ) );
#487 = CARTESIAN_POINT( '', ( 88.7712287780155, -3.17500000000000, 4.06997233662534 ) );
#488 = DIRECTION( '', ( 0.000000000000000, -1.00000000000000, 0.000000000000000 ) );
#489 = DIRECTION( '', ( 1.00000000000000, 0.000000000000000, 0.000000000000000 ) );
#490 = DIRECTION( '', ( 0.000000000000000, 0.000000000000000, 1.00000000000000 ) );
#491 = DIRECTION( '', ( 0.000000000000000, 1.00000000000000, 0.000000000000000 ) );
#492 = DIRECTION( '', ( 0.000000000000000, 0.000000000000000, 1.00000000000000 ) );
#493 = DIRECTION( '', ( 0.000000000000000, 1.00000000000000, 0.000000000000000 ) );
#494 = CARTESIAN_POINT( '', ( -6.47877122198444, -3.17500000000000, 2.54597233662534 ) );
#495 = DIRECTION( '', ( 0.000000000000000, -1.00000000000000, 0.000000000000000 ) );
#496 = DIRECTION( '', ( 1.00000000000000, 0.000000000000000, 0.000000000000000 ) );
#497 = CARTESIAN_POINT( '', ( -19.0517712219844, -3.17500000000000, 2.54597233662534 ) );
#498 = DIRECTION( '', ( 0.000000000000000, -1.00000000000000, 0.000000000000000 ) );
#499 = DIRECTION( '', ( 1.00000000000000, 0.000000000000000, 0.000000000000000 ) );
#500 = CARTESIAN_POINT( '', ( 12.5712287780155, -3.17500000000000, 4.45556695164388 ) );
#501 = DIRECTION( '', ( 0.000000000000000, -1.00000000000000, 0.000000000000000 ) );
#502 = DIRECTION( '', ( 1.00000000000000, 0.000000000000000, 0.000000000000000 ) );
#503 = CARTESIAN_POINT( '', ( 37.9712287780155, -3.17500000000000, 4.06997233662533 ) );
#504 = DIRECTION( '', ( 0.000000000000000, -1.00000000000000, 0.000000000000000 ) );
#505 = DIRECTION( '', ( 1.00000000000000, 0.000000000000000, 0.000000000000000 ) );
#506 = CARTESIAN_POINT( '', ( 63.3712287780155, -3.17500000000000, 4.06997233662534 ) );
#507 = DIRECTION( '', ( 0.000000000000000, -1.00000000000000, 0.000000000000000 ) );
#508 = DIRECTION( '', ( 1.00000000000000, 0.000000000000000, 0.000000000000000 ) );
#509 = CARTESIAN_POINT( '', ( 114.171228778015, -3.17500000000000, 4.06997233662535 ) );
#510 = DIRECTION( '', ( 0.000000000000000, -1.00000000000000, 0.000000000000000 ) );
#511 = DIRECTION( '', ( 1.00000000000000, 0.000000000000000, 0.000000000000000 ) );
#512 = DIRECTION( '', ( -1.00000000000000, 0.000000000000000, 1.22933159714892E-016 ) );
#513 = DIRECTION( '', ( 0.000000000000000, 0.000000000000000, -1.00000000000000 ) );
#514 = DIRECTION( '', ( 1.00000000000000, 0.000000000000000, 0.000000000000000 ) );
#515 = DIRECTION( '', ( 0.000000000000000, 0.000000000000000, -1.00000000000000 ) );
#516 = DIRECTION( '', ( 0.000000000000000, 1.00000000000000, 0.000000000000000 ) );
#517 = DIRECTION( '', ( 0.000000000000000, 1.00000000000000, 0.000000000000000 ) );
#518 = CARTESIAN_POINT( '', ( 114.171228778015, 4.33680868994202E-016, 4.06997233662535 ) );
#519 = DIRECTION( '', ( 0.000000000000000, -1.00000000000000, 0.000000000000000 ) );
#520 = DIRECTION( '', ( 0.000000000000000, 0.000000000000000, -1.00000000000000 ) );
#521 = CARTESIAN_POINT( '', ( 12.5712287780155, 4.33680868994202E-016, 4.45556695164388 ) );
#522 = DIRECTION( '', ( 0.000000000000000, -1.00000000000000, 0.000000000000000 ) );
#523 = DIRECTION( '', ( 0.000000000000000, 0.000000000000000, -1.00000000000000 ) );
#524 = CARTESIAN_POINT( '', ( 63.3712287780155, 4.33680868994202E-016, 4.06997233662534 ) );
#525 = DIRECTION( '', ( 0.000000000000000, -1.00000000000000, 0.000000000000000 ) );
#526 = DIRECTION( '', ( 0.000000000000000, 0.000000000000000, -1.00000000000000 ) );
#527 = CARTESIAN_POINT( '', ( -19.0517712219844, 0.000000000000000, 2.54597233662534 ) );
#528 = DIRECTION( '', ( 0.000000000000000, -1.00000000000000, 0.000000000000000 ) );
#529 = DIRECTION( '', ( 0.000000000000000, 0.000000000000000, -1.00000000000000 ) );
#530 = CARTESIAN_POINT( '', ( 37.9712287780155, 4.33680868994202E-016, 4.06997233662533 ) );
#531 = DIRECTION( '', ( 0.000000000000000, -1.00000000000000, 0.000000000000000 ) );
#532 = DIRECTION( '', ( 0.000000000000000, 0.000000000000000, -1.00000000000000 ) );
#533 = CARTESIAN_POINT( '', ( -6.47877122198444, 0.000000000000000, 2.54597233662534 ) );
#534 = DIRECTION( '', ( 0.000000000000000, -1.00000000000000, 0.000000000000000 ) );
#535 = DIRECTION( '', ( 0.000000000000000, 0.000000000000000, -1.00000000000000 ) );
#536 = DIRECTION( '', ( 1.00000000000000, 0.000000000000000, 0.000000000000000 ) );
#537 = DIRECTION( '', ( -1.00000000000000, 0.000000000000000, 1.22933159714892E-016 ) );
ENDSEC;
END-ISO-10303-21;
