ISO-10303-21;
HEADER;
FILE_DESCRIPTION( ( 'Unknown' ), '1' );
FILE_NAME( 'C:/Users/dugger/Dropbox/labShareRobert/cadToGo/RailGuideSpacer.stp', 'Unknown', ( 'Unknown' ), ( 'Unknown' ), 'PSStep 16.0.42', 'Unknown', '  ' );
FILE_SCHEMA( ( 'AUTOMOTIVE_DESIGN { 1 0 10303 214 1 1 1 1 }' ) );
ENDSEC;
DATA;
#1 = MECHANICAL_DESIGN_GEOMETRIC_PRESENTATION_REPRESENTATION( ' ', ( #10, #11, #12, #13, #14, #15, #16, #17, #18 ), #6 );
#2 = PRODUCT_DEFINITION_CONTEXT( '', #19, 'design' );
#3 = APPLICATION_PROTOCOL_DEFINITION( 'international standard', 'automotive_design', 2001, #19 );
#4 = PRODUCT_CATEGORY_RELATIONSHIP( 'NONE', 'NONE', #20, #21 );
#5 = SHAPE_DEFINITION_REPRESENTATION( #22, #23 );
#6 =  ( GEOMETRIC_REPRESENTATION_CONTEXT( 3 )GLOBAL_UNCERTAINTY_ASSIGNED_CONTEXT( ( #26 ) )GLOBAL_UNIT_ASSIGNED_CONTEXT( ( #28, #29, #30 ) )REPRESENTATION_CONTEXT( 'NONE', 'WORKSPACE' ) );
#10 = STYLED_ITEM( '', ( #32 ), #33 );
#11 = STYLED_ITEM( '', ( #34 ), #35 );
#12 = STYLED_ITEM( '', ( #36 ), #37 );
#13 = STYLED_ITEM( '', ( #38 ), #39 );
#14 = STYLED_ITEM( '', ( #40 ), #41 );
#15 = STYLED_ITEM( '', ( #42 ), #43 );
#16 = STYLED_ITEM( '', ( #44 ), #45 );
#17 = STYLED_ITEM( '', ( #46 ), #47 );
#18 = STYLED_ITEM( '', ( #48 ), #49 );
#19 = APPLICATION_CONTEXT( 'core data for automotive mechanical design processes' );
#20 = PRODUCT_CATEGORY( 'part', 'NONE' );
#21 = PRODUCT_RELATED_PRODUCT_CATEGORY( 'detail', ' ', ( #50 ) );
#22 = PRODUCT_DEFINITION_SHAPE( 'NONE', 'NONE', #51 );
#23 = ADVANCED_BREP_SHAPE_REPRESENTATION( '1', ( #52, #53 ), #6 );
#26 = UNCERTAINTY_MEASURE_WITH_UNIT( LENGTH_MEASURE( 0.00100000000000000 ), #28, '', '' );
#28 =  ( CONVERSION_BASED_UNIT( 'MILLIMETRE', #56 )LENGTH_UNIT(  )NAMED_UNIT( #59 ) );
#29 =  ( NAMED_UNIT( #61 )PLANE_ANGLE_UNIT(  )SI_UNIT( $, .RADIAN. ) );
#30 =  ( NAMED_UNIT( #61 )SI_UNIT( $, .STERADIAN. )SOLID_ANGLE_UNIT(  ) );
#32 = PRESENTATION_STYLE_ASSIGNMENT( ( #67 ) );
#33 = ADVANCED_FACE( '', ( #68, #69 ), #70, .F. );
#34 = PRESENTATION_STYLE_ASSIGNMENT( ( #71 ) );
#35 = ADVANCED_FACE( '', ( #72 ), #73, .F. );
#36 = PRESENTATION_STYLE_ASSIGNMENT( ( #74 ) );
#37 = ADVANCED_FACE( '', ( #75, #76 ), #77, .F. );
#38 = PRESENTATION_STYLE_ASSIGNMENT( ( #78 ) );
#39 = ADVANCED_FACE( '', ( #79, #80, #81, #82 ), #83, .T. );
#40 = PRESENTATION_STYLE_ASSIGNMENT( ( #84 ) );
#41 = ADVANCED_FACE( '', ( #85 ), #86, .T. );
#42 = PRESENTATION_STYLE_ASSIGNMENT( ( #87 ) );
#43 = ADVANCED_FACE( '', ( #88 ), #89, .T. );
#44 = PRESENTATION_STYLE_ASSIGNMENT( ( #90 ) );
#45 = ADVANCED_FACE( '', ( #91 ), #92, .T. );
#46 = PRESENTATION_STYLE_ASSIGNMENT( ( #93 ) );
#47 = ADVANCED_FACE( '', ( #94, #95, #96, #97 ), #98, .T. );
#48 = PRESENTATION_STYLE_ASSIGNMENT( ( #99 ) );
#49 = ADVANCED_FACE( '', ( #100, #101 ), #102, .F. );
#50 = PRODUCT( '1', '1', 'PART-1-DESC', ( #103 ) );
#51 = PRODUCT_DEFINITION( 'NONE', 'NONE', #104, #2 );
#52 = MANIFOLD_SOLID_BREP( '1', #105 );
#53 = AXIS2_PLACEMENT_3D( '', #106, #107, #108 );
#56 = LENGTH_MEASURE_WITH_UNIT( LENGTH_MEASURE( 1.00000000000000 ), #109 );
#59 = DIMENSIONAL_EXPONENTS( 1.00000000000000, 0.000000000000000, 0.000000000000000, 0.000000000000000, 0.000000000000000, 0.000000000000000, 0.000000000000000 );
#61 = DIMENSIONAL_EXPONENTS( 0.000000000000000, 0.000000000000000, 0.000000000000000, 0.000000000000000, 0.000000000000000, 0.000000000000000, 0.000000000000000 );
#67 = SURFACE_STYLE_USAGE( .BOTH., #110 );
#68 = FACE_OUTER_BOUND( '', #111, .T. );
#69 = FACE_OUTER_BOUND( '', #112, .T. );
#70 = CYLINDRICAL_SURFACE( '', #113, 2.08280000000000 );
#71 = SURFACE_STYLE_USAGE( .BOTH., #114 );
#72 = FACE_OUTER_BOUND( '', #115, .T. );
#73 = PLANE( '', #116 );
#74 = SURFACE_STYLE_USAGE( .BOTH., #117 );
#75 = FACE_OUTER_BOUND( '', #118, .T. );
#76 = FACE_OUTER_BOUND( '', #119, .T. );
#77 = CYLINDRICAL_SURFACE( '', #120, 2.08280000000000 );
#78 = SURFACE_STYLE_USAGE( .BOTH., #121 );
#79 = FACE_BOUND( '', #122, .T. );
#80 = FACE_BOUND( '', #123, .T. );
#81 = FACE_BOUND( '', #124, .T. );
#82 = FACE_OUTER_BOUND( '', #125, .T. );
#83 = PLANE( '', #126 );
#84 = SURFACE_STYLE_USAGE( .BOTH., #127 );
#85 = FACE_OUTER_BOUND( '', #128, .T. );
#86 = PLANE( '', #129 );
#87 = SURFACE_STYLE_USAGE( .BOTH., #130 );
#88 = FACE_OUTER_BOUND( '', #131, .T. );
#89 = PLANE( '', #132 );
#90 = SURFACE_STYLE_USAGE( .BOTH., #133 );
#91 = FACE_OUTER_BOUND( '', #134, .T. );
#92 = PLANE( '', #135 );
#93 = SURFACE_STYLE_USAGE( .BOTH., #136 );
#94 = FACE_BOUND( '', #137, .T. );
#95 = FACE_BOUND( '', #138, .T. );
#96 = FACE_BOUND( '', #139, .T. );
#97 = FACE_OUTER_BOUND( '', #140, .T. );
#98 = PLANE( '', #141 );
#99 = SURFACE_STYLE_USAGE( .BOTH., #142 );
#100 = FACE_OUTER_BOUND( '', #143, .T. );
#101 = FACE_OUTER_BOUND( '', #144, .T. );
#102 = CYLINDRICAL_SURFACE( '', #145, 2.08280000000000 );
#103 = PRODUCT_CONTEXT( '', #19, 'mechanical' );
#104 = PRODUCT_DEFINITION_FORMATION_WITH_SPECIFIED_SOURCE( ' ', 'NONE', #50, .NOT_KNOWN. );
#105 = CLOSED_SHELL( '', ( #43, #35, #39, #47, #41, #49, #33, #45, #37 ) );
#106 = CARTESIAN_POINT( '', ( 0.000000000000000, 0.000000000000000, 0.000000000000000 ) );
#107 = DIRECTION( '', ( 0.000000000000000, 0.000000000000000, 1.00000000000000 ) );
#108 = DIRECTION( '', ( 1.00000000000000, 0.000000000000000, 0.000000000000000 ) );
#109 =  ( LENGTH_UNIT(  )NAMED_UNIT( #59 )SI_UNIT( .MILLI., .METRE. ) );
#110 = SURFACE_SIDE_STYLE( '', ( #147 ) );
#111 = EDGE_LOOP( '', ( #148 ) );
#112 = EDGE_LOOP( '', ( #149 ) );
#113 = AXIS2_PLACEMENT_3D( '', #150, #151, #152 );
#114 = SURFACE_SIDE_STYLE( '', ( #153 ) );
#115 = EDGE_LOOP( '', ( #154, #155, #156, #157 ) );
#116 = AXIS2_PLACEMENT_3D( '', #158, #159, #160 );
#117 = SURFACE_SIDE_STYLE( '', ( #161 ) );
#118 = EDGE_LOOP( '', ( #162 ) );
#119 = EDGE_LOOP( '', ( #163 ) );
#120 = AXIS2_PLACEMENT_3D( '', #164, #165, #166 );
#121 = SURFACE_SIDE_STYLE( '', ( #167 ) );
#122 = EDGE_LOOP( '', ( #168 ) );
#123 = EDGE_LOOP( '', ( #169 ) );
#124 = EDGE_LOOP( '', ( #170 ) );
#125 = EDGE_LOOP( '', ( #171, #172, #173, #174 ) );
#126 = AXIS2_PLACEMENT_3D( '', #175, #176, #177 );
#127 = SURFACE_SIDE_STYLE( '', ( #178 ) );
#128 = EDGE_LOOP( '', ( #179, #180, #181, #182 ) );
#129 = AXIS2_PLACEMENT_3D( '', #183, #184, #185 );
#130 = SURFACE_SIDE_STYLE( '', ( #186 ) );
#131 = EDGE_LOOP( '', ( #187, #188, #189, #190 ) );
#132 = AXIS2_PLACEMENT_3D( '', #191, #192, #193 );
#133 = SURFACE_SIDE_STYLE( '', ( #194 ) );
#134 = EDGE_LOOP( '', ( #195, #196, #197, #198 ) );
#135 = AXIS2_PLACEMENT_3D( '', #199, #200, #201 );
#136 = SURFACE_SIDE_STYLE( '', ( #202 ) );
#137 = EDGE_LOOP( '', ( #203 ) );
#138 = EDGE_LOOP( '', ( #204 ) );
#139 = EDGE_LOOP( '', ( #205 ) );
#140 = EDGE_LOOP( '', ( #206, #207, #208, #209 ) );
#141 = AXIS2_PLACEMENT_3D( '', #210, #211, #212 );
#142 = SURFACE_SIDE_STYLE( '', ( #213 ) );
#143 = EDGE_LOOP( '', ( #214 ) );
#144 = EDGE_LOOP( '', ( #215 ) );
#145 = AXIS2_PLACEMENT_3D( '', #216, #217, #218 );
#147 = SURFACE_STYLE_FILL_AREA( #219 );
#148 = ORIENTED_EDGE( '', *, *, #220, .T. );
#149 = ORIENTED_EDGE( '', *, *, #221, .F. );
#150 = CARTESIAN_POINT( '', ( 38.0961974775487, 4.76385356872965, 1.58750000000002 ) );
#151 = DIRECTION( '', ( 1.22675059118070E-016, -0.000000000000000, 1.00000000000000 ) );
#152 = DIRECTION( '', ( 1.00000000000000, 0.000000000000000, -1.22675059118070E-016 ) );
#153 = SURFACE_STYLE_FILL_AREA( #222 );
#154 = ORIENTED_EDGE( '', *, *, #223, .F. );
#155 = ORIENTED_EDGE( '', *, *, #224, .F. );
#156 = ORIENTED_EDGE( '', *, *, #225, .F. );
#157 = ORIENTED_EDGE( '', *, *, #226, .F. );
#158 = CARTESIAN_POINT( '', ( 0.000000000000000, 9.55040000000000, 0.000000000000000 ) );
#159 = DIRECTION( '', ( 0.000000000000000, -1.00000000000000, 0.000000000000000 ) );
#160 = DIRECTION( '', ( 0.000000000000000, 0.000000000000000, -1.00000000000000 ) );
#161 = SURFACE_STYLE_FILL_AREA( #227 );
#162 = ORIENTED_EDGE( '', *, *, #228, .T. );
#163 = ORIENTED_EDGE( '', *, *, #229, .F. );
#164 = CARTESIAN_POINT( '', ( 190.494493594686, 4.77520000000000, 1.58750000000000 ) );
#165 = DIRECTION( '', ( 1.22675059118070E-016, -0.000000000000000, 1.00000000000000 ) );
#166 = DIRECTION( '', ( 1.00000000000000, 0.000000000000000, -1.22675059118070E-016 ) );
#167 = SURFACE_STYLE_FILL_AREA( #230 );
#168 = ORIENTED_EDGE( '', *, *, #228, .F. );
#169 = ORIENTED_EDGE( '', *, *, #231, .F. );
#170 = ORIENTED_EDGE( '', *, *, #220, .F. );
#171 = ORIENTED_EDGE( '', *, *, #232, .F. );
#172 = ORIENTED_EDGE( '', *, *, #233, .F. );
#173 = ORIENTED_EDGE( '', *, *, #225, .T. );
#174 = ORIENTED_EDGE( '', *, *, #234, .T. );
#175 = CARTESIAN_POINT( '', ( 0.000000000000000, 9.55040000000000, 0.000000000000000 ) );
#176 = DIRECTION( '', ( 0.000000000000000, 0.000000000000000, -1.00000000000000 ) );
#177 = DIRECTION( '', ( -1.00000000000000, 0.000000000000000, 0.000000000000000 ) );
#178 = SURFACE_STYLE_FILL_AREA( #235 );
#179 = ORIENTED_EDGE( '', *, *, #236, .F. );
#180 = ORIENTED_EDGE( '', *, *, #237, .F. );
#181 = ORIENTED_EDGE( '', *, *, #226, .T. );
#182 = ORIENTED_EDGE( '', *, *, #233, .T. );
#183 = CARTESIAN_POINT( '', ( 0.000000000000000, 9.55040000000000, 1.58750000000003 ) );
#184 = DIRECTION( '', ( -1.00000000000000, 0.000000000000000, 0.000000000000000 ) );
#185 = DIRECTION( '', ( 0.000000000000000, 0.000000000000000, 1.00000000000000 ) );
#186 = SURFACE_STYLE_FILL_AREA( #238 );
#187 = ORIENTED_EDGE( '', *, *, #239, .F. );
#188 = ORIENTED_EDGE( '', *, *, #234, .F. );
#189 = ORIENTED_EDGE( '', *, *, #224, .T. );
#190 = ORIENTED_EDGE( '', *, *, #240, .T. );
#191 = CARTESIAN_POINT( '', ( 238.125000000000, 9.55040000000000, 0.000000000000000 ) );
#192 = DIRECTION( '', ( 1.00000000000000, 0.000000000000000, 0.000000000000000 ) );
#193 = DIRECTION( '', ( 0.000000000000000, 0.000000000000000, -1.00000000000000 ) );
#194 = SURFACE_STYLE_FILL_AREA( #241 );
#195 = ORIENTED_EDGE( '', *, *, #242, .T. );
#196 = ORIENTED_EDGE( '', *, *, #236, .T. );
#197 = ORIENTED_EDGE( '', *, *, #232, .T. );
#198 = ORIENTED_EDGE( '', *, *, #239, .T. );
#199 = CARTESIAN_POINT( '', ( 0.000000000000000, 0.000000000000000, 0.000000000000000 ) );
#200 = DIRECTION( '', ( 0.000000000000000, -1.00000000000000, 0.000000000000000 ) );
#201 = DIRECTION( '', ( 0.000000000000000, 0.000000000000000, -1.00000000000000 ) );
#202 = SURFACE_STYLE_FILL_AREA( #243 );
#203 = ORIENTED_EDGE( '', *, *, #229, .T. );
#204 = ORIENTED_EDGE( '', *, *, #244, .T. );
#205 = ORIENTED_EDGE( '', *, *, #221, .T. );
#206 = ORIENTED_EDGE( '', *, *, #242, .F. );
#207 = ORIENTED_EDGE( '', *, *, #240, .F. );
#208 = ORIENTED_EDGE( '', *, *, #223, .T. );
#209 = ORIENTED_EDGE( '', *, *, #237, .T. );
#210 = CARTESIAN_POINT( '', ( 224.485200000000, 9.55040000000000, 1.58750000000000 ) );
#211 = DIRECTION( '', ( 1.22675059118070E-016, 0.000000000000000, 1.00000000000000 ) );
#212 = DIRECTION( '', ( 1.00000000000000, 0.000000000000000, -1.22675059118070E-016 ) );
#213 = SURFACE_STYLE_FILL_AREA( #245 );
#214 = ORIENTED_EDGE( '', *, *, #231, .T. );
#215 = ORIENTED_EDGE( '', *, *, #244, .F. );
#216 = CARTESIAN_POINT( '', ( 88.8961974775487, 4.77520000000000, 1.58750000000000 ) );
#217 = DIRECTION( '', ( 1.22675059118070E-016, -0.000000000000000, 1.00000000000000 ) );
#218 = DIRECTION( '', ( 1.00000000000000, 0.000000000000000, -1.22675059118070E-016 ) );
#219 = FILL_AREA_STYLE( '', ( #246 ) );
#220 = EDGE_CURVE( '', #247, #247, #248, .T. );
#221 = EDGE_CURVE( '', #249, #249, #250, .T. );
#222 = FILL_AREA_STYLE( '', ( #251 ) );
#223 = EDGE_CURVE( '', #252, #253, #254, .T. );
#224 = EDGE_CURVE( '', #255, #252, #256, .T. );
#225 = EDGE_CURVE( '', #257, #255, #258, .T. );
#226 = EDGE_CURVE( '', #253, #257, #259, .T. );
#227 = FILL_AREA_STYLE( '', ( #260 ) );
#228 = EDGE_CURVE( '', #261, #261, #262, .T. );
#229 = EDGE_CURVE( '', #263, #263, #264, .T. );
#230 = FILL_AREA_STYLE( '', ( #265 ) );
#231 = EDGE_CURVE( '', #266, #266, #267, .T. );
#232 = EDGE_CURVE( '', #268, #269, #270, .T. );
#233 = EDGE_CURVE( '', #257, #268, #271, .T. );
#234 = EDGE_CURVE( '', #255, #269, #272, .T. );
#235 = FILL_AREA_STYLE( '', ( #273 ) );
#236 = EDGE_CURVE( '', #274, #268, #275, .T. );
#237 = EDGE_CURVE( '', #253, #274, #276, .T. );
#238 = FILL_AREA_STYLE( '', ( #277 ) );
#239 = EDGE_CURVE( '', #269, #278, #279, .T. );
#240 = EDGE_CURVE( '', #252, #278, #280, .T. );
#241 = FILL_AREA_STYLE( '', ( #281 ) );
#242 = EDGE_CURVE( '', #278, #274, #282, .T. );
#243 = FILL_AREA_STYLE( '', ( #283 ) );
#244 = EDGE_CURVE( '', #284, #284, #285, .T. );
#245 = FILL_AREA_STYLE( '', ( #286 ) );
#246 = FILL_AREA_STYLE_COLOUR( '', #287 );
#247 = VERTEX_POINT( '', #288 );
#248 = CIRCLE( '', #289, 2.08280000000000 );
#249 = VERTEX_POINT( '', #290 );
#250 = CIRCLE( '', #291, 2.08280000000000 );
#251 = FILL_AREA_STYLE_COLOUR( '', #292 );
#252 = VERTEX_POINT( '', #293 );
#253 = VERTEX_POINT( '', #294 );
#254 = LINE( '', #295, #296 );
#255 = VERTEX_POINT( '', #297 );
#256 = LINE( '', #298, #299 );
#257 = VERTEX_POINT( '', #300 );
#258 = LINE( '', #301, #302 );
#259 = LINE( '', #303, #304 );
#260 = FILL_AREA_STYLE_COLOUR( '', #305 );
#261 = VERTEX_POINT( '', #306 );
#262 = CIRCLE( '', #307, 2.08280000000000 );
#263 = VERTEX_POINT( '', #308 );
#264 = CIRCLE( '', #309, 2.08280000000000 );
#265 = FILL_AREA_STYLE_COLOUR( '', #310 );
#266 = VERTEX_POINT( '', #311 );
#267 = CIRCLE( '', #312, 2.08280000000000 );
#268 = VERTEX_POINT( '', #313 );
#269 = VERTEX_POINT( '', #314 );
#270 = LINE( '', #315, #316 );
#271 = LINE( '', #317, #318 );
#272 = LINE( '', #319, #320 );
#273 = FILL_AREA_STYLE_COLOUR( '', #321 );
#274 = VERTEX_POINT( '', #322 );
#275 = LINE( '', #323, #324 );
#276 = LINE( '', #325, #326 );
#277 = FILL_AREA_STYLE_COLOUR( '', #327 );
#278 = VERTEX_POINT( '', #328 );
#279 = LINE( '', #329, #330 );
#280 = LINE( '', #331, #332 );
#281 = FILL_AREA_STYLE_COLOUR( '', #333 );
#282 = LINE( '', #334, #335 );
#283 = FILL_AREA_STYLE_COLOUR( '', #336 );
#284 = VERTEX_POINT( '', #337 );
#285 = CIRCLE( '', #338, 2.08280000000000 );
#286 = FILL_AREA_STYLE_COLOUR( '', #339 );
#287 = COLOUR_RGB( '', 0.643137276172638, 0.678431391716003, 0.698039233684540 );
#288 = CARTESIAN_POINT( '', ( 36.0133974775487, 4.76385356872965, -2.16840434497101E-016 ) );
#289 = AXIS2_PLACEMENT_3D( '', #340, #341, #342 );
#290 = CARTESIAN_POINT( '', ( 40.1789974775488, 4.76385356872965, 1.58750000000002 ) );
#291 = AXIS2_PLACEMENT_3D( '', #343, #344, #345 );
#292 = COLOUR_RGB( '', 0.643137276172638, 0.678431391716003, 0.698039233684540 );
#293 = CARTESIAN_POINT( '', ( 238.125000000000, 9.55040000000000, 1.58750000000000 ) );
#294 = CARTESIAN_POINT( '', ( 0.000000000000000, 9.55040000000000, 1.58750000000003 ) );
#295 = CARTESIAN_POINT( '', ( 224.485200000000, 9.55040000000000, 1.58750000000000 ) );
#296 = VECTOR( '', #346, 1000.00000000000 );
#297 = CARTESIAN_POINT( '', ( 238.125000000000, 9.55040000000000, 0.000000000000000 ) );
#298 = CARTESIAN_POINT( '', ( 238.125000000000, 9.55040000000000, 0.000000000000000 ) );
#299 = VECTOR( '', #347, 1000.00000000000 );
#300 = CARTESIAN_POINT( '', ( 0.000000000000000, 9.55040000000000, 0.000000000000000 ) );
#301 = CARTESIAN_POINT( '', ( 0.000000000000000, 9.55040000000000, 0.000000000000000 ) );
#302 = VECTOR( '', #348, 1000.00000000000 );
#303 = CARTESIAN_POINT( '', ( 0.000000000000000, 9.55040000000000, 1.58750000000003 ) );
#304 = VECTOR( '', #349, 1000.00000000000 );
#305 = COLOUR_RGB( '', 0.643137276172638, 0.678431391716003, 0.698039233684540 );
#306 = CARTESIAN_POINT( '', ( 188.411693594686, 4.77520000000000, 0.000000000000000 ) );
#307 = AXIS2_PLACEMENT_3D( '', #350, #351, #352 );
#308 = CARTESIAN_POINT( '', ( 192.577293594686, 4.77520000000000, 1.58750000000000 ) );
#309 = AXIS2_PLACEMENT_3D( '', #353, #354, #355 );
#310 = COLOUR_RGB( '', 0.643137276172638, 0.678431391716003, 0.698039233684540 );
#311 = CARTESIAN_POINT( '', ( 86.8133974775487, 4.77520000000000, 0.000000000000000 ) );
#312 = AXIS2_PLACEMENT_3D( '', #356, #357, #358 );
#313 = CARTESIAN_POINT( '', ( 0.000000000000000, 0.000000000000000, 0.000000000000000 ) );
#314 = CARTESIAN_POINT( '', ( 238.125000000000, 0.000000000000000, 0.000000000000000 ) );
#315 = CARTESIAN_POINT( '', ( 0.000000000000000, 0.000000000000000, 0.000000000000000 ) );
#316 = VECTOR( '', #359, 1000.00000000000 );
#317 = CARTESIAN_POINT( '', ( 0.000000000000000, 9.55040000000000, 0.000000000000000 ) );
#318 = VECTOR( '', #360, 1000.00000000000 );
#319 = CARTESIAN_POINT( '', ( 238.125000000000, 9.55040000000000, 0.000000000000000 ) );
#320 = VECTOR( '', #361, 1000.00000000000 );
#321 = COLOUR_RGB( '', 0.643137276172638, 0.678431391716003, 0.698039233684540 );
#322 = CARTESIAN_POINT( '', ( 0.000000000000000, 0.000000000000000, 1.58750000000003 ) );
#323 = CARTESIAN_POINT( '', ( 0.000000000000000, 0.000000000000000, 1.58750000000003 ) );
#324 = VECTOR( '', #362, 1000.00000000000 );
#325 = CARTESIAN_POINT( '', ( 0.000000000000000, 9.55040000000000, 1.58750000000003 ) );
#326 = VECTOR( '', #363, 1000.00000000000 );
#327 = COLOUR_RGB( '', 0.643137276172638, 0.678431391716003, 0.698039233684540 );
#328 = CARTESIAN_POINT( '', ( 238.125000000000, 0.000000000000000, 1.58750000000000 ) );
#329 = CARTESIAN_POINT( '', ( 238.125000000000, 0.000000000000000, 0.000000000000000 ) );
#330 = VECTOR( '', #364, 1000.00000000000 );
#331 = CARTESIAN_POINT( '', ( 238.125000000000, 9.55040000000000, 1.58750000000000 ) );
#332 = VECTOR( '', #365, 1000.00000000000 );
#333 = COLOUR_RGB( '', 0.643137276172638, 0.678431391716003, 0.698039233684540 );
#334 = CARTESIAN_POINT( '', ( 224.485200000000, 0.000000000000000, 1.58750000000000 ) );
#335 = VECTOR( '', #366, 1000.00000000000 );
#336 = COLOUR_RGB( '', 0.643137276172638, 0.678431391716003, 0.698039233684540 );
#337 = CARTESIAN_POINT( '', ( 90.9789974775487, 4.77520000000000, 1.58750000000000 ) );
#338 = AXIS2_PLACEMENT_3D( '', #367, #368, #369 );
#339 = COLOUR_RGB( '', 0.643137276172638, 0.678431391716003, 0.698039233684540 );
#340 = CARTESIAN_POINT( '', ( 38.0961974775487, 4.76385356872965, -2.16840434497101E-016 ) );
#341 = DIRECTION( '', ( 0.000000000000000, 0.000000000000000, -1.00000000000000 ) );
#342 = DIRECTION( '', ( -1.00000000000000, 0.000000000000000, 0.000000000000000 ) );
#343 = CARTESIAN_POINT( '', ( 38.0961974775487, 4.76385356872965, 1.58750000000002 ) );
#344 = DIRECTION( '', ( -1.22675059118070E-016, 0.000000000000000, -1.00000000000000 ) );
#345 = DIRECTION( '', ( 1.00000000000000, 0.000000000000000, -1.22675059118070E-016 ) );
#346 = DIRECTION( '', ( -1.00000000000000, 0.000000000000000, 1.22675059118070E-016 ) );
#347 = DIRECTION( '', ( 0.000000000000000, 0.000000000000000, 1.00000000000000 ) );
#348 = DIRECTION( '', ( 1.00000000000000, 0.000000000000000, 0.000000000000000 ) );
#349 = DIRECTION( '', ( 0.000000000000000, 0.000000000000000, -1.00000000000000 ) );
#350 = CARTESIAN_POINT( '', ( 190.494493594686, 4.77520000000000, 0.000000000000000 ) );
#351 = DIRECTION( '', ( 0.000000000000000, 0.000000000000000, -1.00000000000000 ) );
#352 = DIRECTION( '', ( -1.00000000000000, 0.000000000000000, 0.000000000000000 ) );
#353 = CARTESIAN_POINT( '', ( 190.494493594686, 4.77520000000000, 1.58750000000000 ) );
#354 = DIRECTION( '', ( -1.22675059118070E-016, 0.000000000000000, -1.00000000000000 ) );
#355 = DIRECTION( '', ( 1.00000000000000, 0.000000000000000, -1.22675059118070E-016 ) );
#356 = CARTESIAN_POINT( '', ( 88.8961974775487, 4.77520000000000, 0.000000000000000 ) );
#357 = DIRECTION( '', ( 0.000000000000000, 0.000000000000000, -1.00000000000000 ) );
#358 = DIRECTION( '', ( -1.00000000000000, 0.000000000000000, 0.000000000000000 ) );
#359 = DIRECTION( '', ( 1.00000000000000, 0.000000000000000, 0.000000000000000 ) );
#360 = DIRECTION( '', ( 0.000000000000000, -1.00000000000000, 0.000000000000000 ) );
#361 = DIRECTION( '', ( 0.000000000000000, -1.00000000000000, 0.000000000000000 ) );
#362 = DIRECTION( '', ( 0.000000000000000, 0.000000000000000, -1.00000000000000 ) );
#363 = DIRECTION( '', ( 0.000000000000000, -1.00000000000000, 0.000000000000000 ) );
#364 = DIRECTION( '', ( 0.000000000000000, 0.000000000000000, 1.00000000000000 ) );
#365 = DIRECTION( '', ( 0.000000000000000, -1.00000000000000, 0.000000000000000 ) );
#366 = DIRECTION( '', ( -1.00000000000000, 0.000000000000000, 1.22675059118070E-016 ) );
#367 = CARTESIAN_POINT( '', ( 88.8961974775487, 4.77520000000000, 1.58750000000000 ) );
#368 = DIRECTION( '', ( -1.22675059118070E-016, 0.000000000000000, -1.00000000000000 ) );
#369 = DIRECTION( '', ( 1.00000000000000, 0.000000000000000, -1.22675059118070E-016 ) );
ENDSEC;
END-ISO-10303-21;
