ISO-10303-21;
HEADER;
FILE_DESCRIPTION( ( 'Unknown' ), '1' );
FILE_NAME( 'C:/Users/dugger/Dropbox/labShareRobert/cadToGo/StrikerPlate.stp', 'Unknown', ( 'Unknown' ), ( 'Unknown' ), 'PSStep 16.0.42', 'Unknown', '  ' );
FILE_SCHEMA( ( 'AUTOMOTIVE_DESIGN { 1 0 10303 214 1 1 1 1 }' ) );
ENDSEC;
DATA;
#1 = MECHANICAL_DESIGN_GEOMETRIC_PRESENTATION_REPRESENTATION( ' ', ( #10, #11, #12, #13, #14, #15, #16, #17, #18, #19 ), #6 );
#2 = PRODUCT_DEFINITION_CONTEXT( '', #20, 'design' );
#3 = APPLICATION_PROTOCOL_DEFINITION( 'international standard', 'automotive_design', 2001, #20 );
#4 = PRODUCT_CATEGORY_RELATIONSHIP( 'NONE', 'NONE', #21, #22 );
#5 = SHAPE_DEFINITION_REPRESENTATION( #23, #24 );
#6 =  ( GEOMETRIC_REPRESENTATION_CONTEXT( 3 )GLOBAL_UNCERTAINTY_ASSIGNED_CONTEXT( ( #27 ) )GLOBAL_UNIT_ASSIGNED_CONTEXT( ( #29, #30, #31 ) )REPRESENTATION_CONTEXT( 'NONE', 'WORKSPACE' ) );
#10 = STYLED_ITEM( '', ( #33 ), #34 );
#11 = STYLED_ITEM( '', ( #35 ), #36 );
#12 = STYLED_ITEM( '', ( #37 ), #38 );
#13 = STYLED_ITEM( '', ( #39 ), #40 );
#14 = STYLED_ITEM( '', ( #41 ), #42 );
#15 = STYLED_ITEM( '', ( #43 ), #44 );
#16 = STYLED_ITEM( '', ( #45 ), #46 );
#17 = STYLED_ITEM( '', ( #47 ), #48 );
#18 = STYLED_ITEM( '', ( #49 ), #50 );
#19 = STYLED_ITEM( '', ( #51 ), #52 );
#20 = APPLICATION_CONTEXT( 'core data for automotive mechanical design processes' );
#21 = PRODUCT_CATEGORY( 'part', 'NONE' );
#22 = PRODUCT_RELATED_PRODUCT_CATEGORY( 'detail', ' ', ( #53 ) );
#23 = PRODUCT_DEFINITION_SHAPE( 'NONE', 'NONE', #54 );
#24 = ADVANCED_BREP_SHAPE_REPRESENTATION( '1', ( #55, #56 ), #6 );
#27 = UNCERTAINTY_MEASURE_WITH_UNIT( LENGTH_MEASURE( 0.00100000000000000 ), #29, '', '' );
#29 =  ( CONVERSION_BASED_UNIT( 'MILLIMETRE', #59 )LENGTH_UNIT(  )NAMED_UNIT( #62 ) );
#30 =  ( NAMED_UNIT( #64 )PLANE_ANGLE_UNIT(  )SI_UNIT( $, .RADIAN. ) );
#31 =  ( NAMED_UNIT( #64 )SI_UNIT( $, .STERADIAN. )SOLID_ANGLE_UNIT(  ) );
#33 = PRESENTATION_STYLE_ASSIGNMENT( ( #70 ) );
#34 = ADVANCED_FACE( '', ( #71, #72 ), #73, .F. );
#35 = PRESENTATION_STYLE_ASSIGNMENT( ( #74 ) );
#36 = ADVANCED_FACE( '', ( #75 ), #76, .T. );
#37 = PRESENTATION_STYLE_ASSIGNMENT( ( #77 ) );
#38 = ADVANCED_FACE( '', ( #78 ), #79, .T. );
#39 = PRESENTATION_STYLE_ASSIGNMENT( ( #80 ) );
#40 = ADVANCED_FACE( '', ( #81 ), #82, .F. );
#41 = PRESENTATION_STYLE_ASSIGNMENT( ( #83 ) );
#42 = ADVANCED_FACE( '', ( #84, #85, #86 ), #87, .F. );
#43 = PRESENTATION_STYLE_ASSIGNMENT( ( #88 ) );
#44 = ADVANCED_FACE( '', ( #89 ), #90, .T. );
#45 = PRESENTATION_STYLE_ASSIGNMENT( ( #91 ) );
#46 = ADVANCED_FACE( '', ( #92, #93 ), #94, .F. );
#47 = PRESENTATION_STYLE_ASSIGNMENT( ( #95 ) );
#48 = ADVANCED_FACE( '', ( #96 ), #97, .T. );
#49 = PRESENTATION_STYLE_ASSIGNMENT( ( #98 ) );
#50 = ADVANCED_FACE( '', ( #99 ), #100, .F. );
#51 = PRESENTATION_STYLE_ASSIGNMENT( ( #101 ) );
#52 = ADVANCED_FACE( '', ( #102, #103, #104 ), #105, .T. );
#53 = PRODUCT( '1', '1', 'PART-1-DESC', ( #106 ) );
#54 = PRODUCT_DEFINITION( 'NONE', 'NONE', #107, #2 );
#55 = MANIFOLD_SOLID_BREP( '1', #108 );
#56 = AXIS2_PLACEMENT_3D( '', #109, #110, #111 );
#59 = LENGTH_MEASURE_WITH_UNIT( LENGTH_MEASURE( 1.00000000000000 ), #112 );
#62 = DIMENSIONAL_EXPONENTS( 1.00000000000000, 0.000000000000000, 0.000000000000000, 0.000000000000000, 0.000000000000000, 0.000000000000000, 0.000000000000000 );
#64 = DIMENSIONAL_EXPONENTS( 0.000000000000000, 0.000000000000000, 0.000000000000000, 0.000000000000000, 0.000000000000000, 0.000000000000000, 0.000000000000000 );
#70 = SURFACE_STYLE_USAGE( .BOTH., #113 );
#71 = FACE_OUTER_BOUND( '', #114, .T. );
#72 = FACE_OUTER_BOUND( '', #115, .T. );
#73 = CYLINDRICAL_SURFACE( '', #116, 2.14630000000000 );
#74 = SURFACE_STYLE_USAGE( .BOTH., #117 );
#75 = FACE_OUTER_BOUND( '', #118, .T. );
#76 = PLANE( '', #119 );
#77 = SURFACE_STYLE_USAGE( .BOTH., #120 );
#78 = FACE_OUTER_BOUND( '', #121, .T. );
#79 = PLANE( '', #122 );
#80 = SURFACE_STYLE_USAGE( .BOTH., #123 );
#81 = FACE_OUTER_BOUND( '', #124, .T. );
#82 = PLANE( '', #125 );
#83 = SURFACE_STYLE_USAGE( .BOTH., #126 );
#84 = FACE_BOUND( '', #127, .T. );
#85 = FACE_BOUND( '', #128, .T. );
#86 = FACE_OUTER_BOUND( '', #129, .T. );
#87 = PLANE( '', #130 );
#88 = SURFACE_STYLE_USAGE( .BOTH., #131 );
#89 = FACE_OUTER_BOUND( '', #132, .T. );
#90 = PLANE( '', #133 );
#91 = SURFACE_STYLE_USAGE( .BOTH., #134 );
#92 = FACE_OUTER_BOUND( '', #135, .T. );
#93 = FACE_OUTER_BOUND( '', #136, .T. );
#94 = CYLINDRICAL_SURFACE( '', #137, 2.14630000000000 );
#95 = SURFACE_STYLE_USAGE( .BOTH., #138 );
#96 = FACE_OUTER_BOUND( '', #139, .T. );
#97 = PLANE( '', #140 );
#98 = SURFACE_STYLE_USAGE( .BOTH., #141 );
#99 = FACE_OUTER_BOUND( '', #142, .T. );
#100 = PLANE( '', #143 );
#101 = SURFACE_STYLE_USAGE( .BOTH., #144 );
#102 = FACE_BOUND( '', #145, .T. );
#103 = FACE_BOUND( '', #146, .T. );
#104 = FACE_OUTER_BOUND( '', #147, .T. );
#105 = PLANE( '', #148 );
#106 = PRODUCT_CONTEXT( '', #20, 'mechanical' );
#107 = PRODUCT_DEFINITION_FORMATION_WITH_SPECIFIED_SOURCE( ' ', 'NONE', #53, .NOT_KNOWN. );
#108 = CLOSED_SHELL( '', ( #40, #50, #48, #36, #46, #34, #52, #42, #38, #44 ) );
#109 = CARTESIAN_POINT( '', ( 0.000000000000000, 0.000000000000000, 0.000000000000000 ) );
#110 = DIRECTION( '', ( 0.000000000000000, 0.000000000000000, 1.00000000000000 ) );
#111 = DIRECTION( '', ( 1.00000000000000, 0.000000000000000, 0.000000000000000 ) );
#112 =  ( LENGTH_UNIT(  )NAMED_UNIT( #62 )SI_UNIT( .MILLI., .METRE. ) );
#113 = SURFACE_SIDE_STYLE( '', ( #150 ) );
#114 = EDGE_LOOP( '', ( #151 ) );
#115 = EDGE_LOOP( '', ( #152 ) );
#116 = AXIS2_PLACEMENT_3D( '', #153, #154, #155 );
#117 = SURFACE_SIDE_STYLE( '', ( #156 ) );
#118 = EDGE_LOOP( '', ( #157, #158, #159, #160 ) );
#119 = AXIS2_PLACEMENT_3D( '', #161, #162, #163 );
#120 = SURFACE_SIDE_STYLE( '', ( #164 ) );
#121 = EDGE_LOOP( '', ( #165, #166, #167, #168 ) );
#122 = AXIS2_PLACEMENT_3D( '', #169, #170, #171 );
#123 = SURFACE_SIDE_STYLE( '', ( #172 ) );
#124 = EDGE_LOOP( '', ( #173, #174, #175, #176 ) );
#125 = AXIS2_PLACEMENT_3D( '', #177, #178, #179 );
#126 = SURFACE_SIDE_STYLE( '', ( #180 ) );
#127 = EDGE_LOOP( '', ( #181 ) );
#128 = EDGE_LOOP( '', ( #182 ) );
#129 = EDGE_LOOP( '', ( #183, #184, #185, #186, #187, #188 ) );
#130 = AXIS2_PLACEMENT_3D( '', #189, #190, #191 );
#131 = SURFACE_SIDE_STYLE( '', ( #192 ) );
#132 = EDGE_LOOP( '', ( #193, #194, #195, #196 ) );
#133 = AXIS2_PLACEMENT_3D( '', #197, #198, #199 );
#134 = SURFACE_SIDE_STYLE( '', ( #200 ) );
#135 = EDGE_LOOP( '', ( #201 ) );
#136 = EDGE_LOOP( '', ( #202 ) );
#137 = AXIS2_PLACEMENT_3D( '', #203, #204, #205 );
#138 = SURFACE_SIDE_STYLE( '', ( #206 ) );
#139 = EDGE_LOOP( '', ( #207, #208, #209, #210 ) );
#140 = AXIS2_PLACEMENT_3D( '', #211, #212, #213 );
#141 = SURFACE_SIDE_STYLE( '', ( #214 ) );
#142 = EDGE_LOOP( '', ( #215, #216, #217, #218 ) );
#143 = AXIS2_PLACEMENT_3D( '', #219, #220, #221 );
#144 = SURFACE_SIDE_STYLE( '', ( #222 ) );
#145 = EDGE_LOOP( '', ( #223 ) );
#146 = EDGE_LOOP( '', ( #224 ) );
#147 = EDGE_LOOP( '', ( #225, #226, #227, #228, #229, #230 ) );
#148 = AXIS2_PLACEMENT_3D( '', #231, #232, #233 );
#150 = SURFACE_STYLE_FILL_AREA( #234 );
#151 = ORIENTED_EDGE( '', *, *, #235, .T. );
#152 = ORIENTED_EDGE( '', *, *, #236, .T. );
#153 = CARTESIAN_POINT( '', ( 12.7000000000000, 117.454784449163, 19.0555055081688 ) );
#154 = DIRECTION( '', ( -0.000000000000000, 1.00000000000000, -0.000000000000000 ) );
#155 = DIRECTION( '', ( 0.000000000000000, 0.000000000000000, -1.00000000000000 ) );
#156 = SURFACE_STYLE_FILL_AREA( #237 );
#157 = ORIENTED_EDGE( '', *, *, #238, .F. );
#158 = ORIENTED_EDGE( '', *, *, #239, .T. );
#159 = ORIENTED_EDGE( '', *, *, #240, .T. );
#160 = ORIENTED_EDGE( '', *, *, #241, .T. );
#161 = CARTESIAN_POINT( '', ( 25.4000000000000, -1.01600000000000, 5.08000000000000 ) );
#162 = DIRECTION( '', ( 0.000000000000000, 0.000000000000000, -1.00000000000000 ) );
#163 = DIRECTION( '', ( -1.00000000000000, 0.000000000000000, 0.000000000000000 ) );
#164 = SURFACE_STYLE_FILL_AREA( #242 );
#165 = ORIENTED_EDGE( '', *, *, #243, .F. );
#166 = ORIENTED_EDGE( '', *, *, #244, .F. );
#167 = ORIENTED_EDGE( '', *, *, #245, .T. );
#168 = ORIENTED_EDGE( '', *, *, #246, .T. );
#169 = CARTESIAN_POINT( '', ( 7.77650717458569E-015, -1.01600000000000, 63.5000000000000 ) );
#170 = DIRECTION( '', ( 0.000000000000000, 0.000000000000000, 1.00000000000000 ) );
#171 = DIRECTION( '', ( 1.00000000000000, 0.000000000000000, 0.000000000000000 ) );
#172 = SURFACE_STYLE_FILL_AREA( #247 );
#173 = ORIENTED_EDGE( '', *, *, #248, .F. );
#174 = ORIENTED_EDGE( '', *, *, #239, .F. );
#175 = ORIENTED_EDGE( '', *, *, #249, .F. );
#176 = ORIENTED_EDGE( '', *, *, #250, .F. );
#177 = CARTESIAN_POINT( '', ( 25.4000000000000, -1.01600000000000, 11.4300000000000 ) );
#178 = DIRECTION( '', ( -0.707106781186548, 0.000000000000000, 0.707106781186548 ) );
#179 = DIRECTION( '', ( 0.707106781186548, 0.000000000000000, 0.707106781186548 ) );
#180 = SURFACE_STYLE_FILL_AREA( #251 );
#181 = ORIENTED_EDGE( '', *, *, #235, .F. );
#182 = ORIENTED_EDGE( '', *, *, #252, .F. );
#183 = ORIENTED_EDGE( '', *, *, #240, .F. );
#184 = ORIENTED_EDGE( '', *, *, #248, .T. );
#185 = ORIENTED_EDGE( '', *, *, #253, .F. );
#186 = ORIENTED_EDGE( '', *, *, #245, .F. );
#187 = ORIENTED_EDGE( '', *, *, #254, .F. );
#188 = ORIENTED_EDGE( '', *, *, #255, .T. );
#189 = CARTESIAN_POINT( '', ( 0.000000000000000, -1.01600000000000, 0.000000000000000 ) );
#190 = DIRECTION( '', ( 0.000000000000000, 1.00000000000000, 0.000000000000000 ) );
#191 = DIRECTION( '', ( 0.000000000000000, 0.000000000000000, 1.00000000000000 ) );
#192 = SURFACE_STYLE_FILL_AREA( #256 );
#193 = ORIENTED_EDGE( '', *, *, #257, .F. );
#194 = ORIENTED_EDGE( '', *, *, #258, .T. );
#195 = ORIENTED_EDGE( '', *, *, #254, .T. );
#196 = ORIENTED_EDGE( '', *, *, #244, .T. );
#197 = CARTESIAN_POINT( '', ( 0.000000000000000, -1.01600000000000, 0.000000000000000 ) );
#198 = DIRECTION( '', ( -1.00000000000000, 0.000000000000000, 1.22464679914735E-016 ) );
#199 = DIRECTION( '', ( 1.22464679914735E-016, 0.000000000000000, 1.00000000000000 ) );
#200 = SURFACE_STYLE_FILL_AREA( #259 );
#201 = ORIENTED_EDGE( '', *, *, #252, .T. );
#202 = ORIENTED_EDGE( '', *, *, #260, .T. );
#203 = CARTESIAN_POINT( '', ( 12.7000000000000, 117.454784449163, 44.4555055081688 ) );
#204 = DIRECTION( '', ( -0.000000000000000, 1.00000000000000, -0.000000000000000 ) );
#205 = DIRECTION( '', ( 0.000000000000000, 0.000000000000000, -1.00000000000000 ) );
#206 = SURFACE_STYLE_FILL_AREA( #261 );
#207 = ORIENTED_EDGE( '', *, *, #253, .T. );
#208 = ORIENTED_EDGE( '', *, *, #250, .T. );
#209 = ORIENTED_EDGE( '', *, *, #262, .F. );
#210 = ORIENTED_EDGE( '', *, *, #246, .F. );
#211 = CARTESIAN_POINT( '', ( 25.4000000000000, -1.01600000000000, 63.5000000000000 ) );
#212 = DIRECTION( '', ( 1.00000000000000, 0.000000000000000, 0.000000000000000 ) );
#213 = DIRECTION( '', ( 0.000000000000000, 0.000000000000000, -1.00000000000000 ) );
#214 = SURFACE_STYLE_FILL_AREA( #263 );
#215 = ORIENTED_EDGE( '', *, *, #255, .F. );
#216 = ORIENTED_EDGE( '', *, *, #258, .F. );
#217 = ORIENTED_EDGE( '', *, *, #264, .F. );
#218 = ORIENTED_EDGE( '', *, *, #241, .F. );
#219 = CARTESIAN_POINT( '', ( 6.35000000000000, -1.01600000000000, 5.08000000000000 ) );
#220 = DIRECTION( '', ( 0.707106781186547, 0.000000000000000, 0.707106781186548 ) );
#221 = DIRECTION( '', ( 0.707106781186548, 0.000000000000000, -0.707106781186547 ) );
#222 = SURFACE_STYLE_FILL_AREA( #265 );
#223 = ORIENTED_EDGE( '', *, *, #236, .F. );
#224 = ORIENTED_EDGE( '', *, *, #260, .F. );
#225 = ORIENTED_EDGE( '', *, *, #262, .T. );
#226 = ORIENTED_EDGE( '', *, *, #249, .T. );
#227 = ORIENTED_EDGE( '', *, *, #238, .T. );
#228 = ORIENTED_EDGE( '', *, *, #264, .T. );
#229 = ORIENTED_EDGE( '', *, *, #257, .T. );
#230 = ORIENTED_EDGE( '', *, *, #243, .T. );
#231 = CARTESIAN_POINT( '', ( 0.000000000000000, 0.000000000000000, 0.000000000000000 ) );
#232 = DIRECTION( '', ( 0.000000000000000, 1.00000000000000, 0.000000000000000 ) );
#233 = DIRECTION( '', ( 0.000000000000000, 0.000000000000000, 1.00000000000000 ) );
#234 = FILL_AREA_STYLE( '', ( #266 ) );
#235 = EDGE_CURVE( '', #267, #267, #268, .F. );
#236 = EDGE_CURVE( '', #269, #269, #270, .T. );
#237 = FILL_AREA_STYLE( '', ( #271 ) );
#238 = EDGE_CURVE( '', #272, #273, #274, .T. );
#239 = EDGE_CURVE( '', #272, #275, #276, .F. );
#240 = EDGE_CURVE( '', #275, #277, #278, .T. );
#241 = EDGE_CURVE( '', #277, #273, #279, .F. );
#242 = FILL_AREA_STYLE( '', ( #280 ) );
#243 = EDGE_CURVE( '', #281, #282, #283, .T. );
#244 = EDGE_CURVE( '', #284, #281, #285, .T. );
#245 = EDGE_CURVE( '', #284, #286, #287, .T. );
#246 = EDGE_CURVE( '', #286, #282, #288, .T. );
#247 = FILL_AREA_STYLE( '', ( #289 ) );
#248 = EDGE_CURVE( '', #275, #290, #291, .F. );
#249 = EDGE_CURVE( '', #292, #272, #293, .F. );
#250 = EDGE_CURVE( '', #290, #292, #294, .F. );
#251 = FILL_AREA_STYLE( '', ( #295 ) );
#252 = EDGE_CURVE( '', #296, #296, #297, .F. );
#253 = EDGE_CURVE( '', #286, #290, #298, .T. );
#254 = EDGE_CURVE( '', #299, #284, #300, .T. );
#255 = EDGE_CURVE( '', #299, #277, #301, .F. );
#256 = FILL_AREA_STYLE( '', ( #302 ) );
#257 = EDGE_CURVE( '', #303, #281, #304, .T. );
#258 = EDGE_CURVE( '', #303, #299, #305, .F. );
#259 = FILL_AREA_STYLE( '', ( #306 ) );
#260 = EDGE_CURVE( '', #307, #307, #308, .T. );
#261 = FILL_AREA_STYLE( '', ( #309 ) );
#262 = EDGE_CURVE( '', #282, #292, #310, .T. );
#263 = FILL_AREA_STYLE( '', ( #311 ) );
#264 = EDGE_CURVE( '', #273, #303, #312, .F. );
#265 = FILL_AREA_STYLE( '', ( #313 ) );
#266 = FILL_AREA_STYLE_COLOUR( '', #314 );
#267 = VERTEX_POINT( '', #315 );
#268 = CIRCLE( '', #316, 2.14630000000000 );
#269 = VERTEX_POINT( '', #317 );
#270 = CIRCLE( '', #318, 2.14630000000000 );
#271 = FILL_AREA_STYLE_COLOUR( '', #319 );
#272 = VERTEX_POINT( '', #320 );
#273 = VERTEX_POINT( '', #321 );
#274 = LINE( '', #322, #323 );
#275 = VERTEX_POINT( '', #324 );
#276 = LINE( '', #325, #326 );
#277 = VERTEX_POINT( '', #327 );
#278 = LINE( '', #328, #329 );
#279 = LINE( '', #330, #331 );
#280 = FILL_AREA_STYLE_COLOUR( '', #332 );
#281 = VERTEX_POINT( '', #333 );
#282 = VERTEX_POINT( '', #334 );
#283 = LINE( '', #335, #336 );
#284 = VERTEX_POINT( '', #337 );
#285 = LINE( '', #338, #339 );
#286 = VERTEX_POINT( '', #340 );
#287 = LINE( '', #341, #342 );
#288 = LINE( '', #343, #344 );
#289 = FILL_AREA_STYLE_COLOUR( '', #345 );
#290 = VERTEX_POINT( '', #346 );
#291 = LINE( '', #347, #348 );
#292 = VERTEX_POINT( '', #349 );
#293 = LINE( '', #350, #351 );
#294 = LINE( '', #352, #353 );
#295 = FILL_AREA_STYLE_COLOUR( '', #354 );
#296 = VERTEX_POINT( '', #355 );
#297 = CIRCLE( '', #356, 2.14630000000000 );
#298 = LINE( '', #357, #358 );
#299 = VERTEX_POINT( '', #359 );
#300 = LINE( '', #360, #361 );
#301 = LINE( '', #362, #363 );
#302 = FILL_AREA_STYLE_COLOUR( '', #364 );
#303 = VERTEX_POINT( '', #365 );
#304 = LINE( '', #366, #367 );
#305 = LINE( '', #368, #369 );
#306 = FILL_AREA_STYLE_COLOUR( '', #370 );
#307 = VERTEX_POINT( '', #371 );
#308 = CIRCLE( '', #372, 2.14630000000000 );
#309 = FILL_AREA_STYLE_COLOUR( '', #373 );
#310 = LINE( '', #374, #375 );
#311 = FILL_AREA_STYLE_COLOUR( '', #376 );
#312 = LINE( '', #377, #378 );
#313 = FILL_AREA_STYLE_COLOUR( '', #379 );
#314 = COLOUR_RGB( '', 0.643137276172638, 0.678431391716003, 0.698039233684540 );
#315 = CARTESIAN_POINT( '', ( 12.7000000000000, -1.01600000000000, 21.2018055081689 ) );
#316 = AXIS2_PLACEMENT_3D( '', #380, #381, #382 );
#317 = CARTESIAN_POINT( '', ( 12.7000000000000, -3.25260651745651E-015, 21.2018055081689 ) );
#318 = AXIS2_PLACEMENT_3D( '', #383, #384, #385 );
#319 = COLOUR_RGB( '', 0.643137276172638, 0.678431391716003, 0.698039233684540 );
#320 = CARTESIAN_POINT( '', ( 19.0500000000000, 0.000000000000000, 5.08000000000000 ) );
#321 = CARTESIAN_POINT( '', ( 6.35000000000000, 0.000000000000000, 5.08000000000000 ) );
#322 = CARTESIAN_POINT( '', ( 25.4000000000000, 0.000000000000000, 5.08000000000000 ) );
#323 = VECTOR( '', #386, 1000.00000000000 );
#324 = CARTESIAN_POINT( '', ( 19.0500000000000, -1.01600000000000, 5.08000000000000 ) );
#325 = CARTESIAN_POINT( '', ( 19.0500000000000, -1.01600000000000, 5.08000000000000 ) );
#326 = VECTOR( '', #387, 1000.00000000000 );
#327 = CARTESIAN_POINT( '', ( 6.35000000000000, -1.01600000000000, 5.08000000000000 ) );
#328 = CARTESIAN_POINT( '', ( 25.4000000000000, -1.01600000000000, 5.08000000000000 ) );
#329 = VECTOR( '', #388, 1000.00000000000 );
#330 = CARTESIAN_POINT( '', ( 6.35000000000000, -1.01600000000000, 5.08000000000000 ) );
#331 = VECTOR( '', #389, 1000.00000000000 );
#332 = COLOUR_RGB( '', 0.643137276172638, 0.678431391716003, 0.698039233684540 );
#333 = CARTESIAN_POINT( '', ( 7.77650717458569E-015, 0.000000000000000, 63.5000000000000 ) );
#334 = CARTESIAN_POINT( '', ( 25.4000000000000, 0.000000000000000, 63.5000000000000 ) );
#335 = CARTESIAN_POINT( '', ( 7.77650717458569E-015, 0.000000000000000, 63.5000000000000 ) );
#336 = VECTOR( '', #390, 1000.00000000000 );
#337 = CARTESIAN_POINT( '', ( 7.77650717458569E-015, -1.01600000000000, 63.5000000000000 ) );
#338 = CARTESIAN_POINT( '', ( 7.77650717458569E-015, -1.01600000000000, 63.5000000000000 ) );
#339 = VECTOR( '', #391, 1000.00000000000 );
#340 = CARTESIAN_POINT( '', ( 25.4000000000000, -1.01600000000000, 63.5000000000000 ) );
#341 = CARTESIAN_POINT( '', ( 7.77650717458569E-015, -1.01600000000000, 63.5000000000000 ) );
#342 = VECTOR( '', #392, 1000.00000000000 );
#343 = CARTESIAN_POINT( '', ( 25.4000000000000, -1.01600000000000, 63.5000000000000 ) );
#344 = VECTOR( '', #393, 1000.00000000000 );
#345 = COLOUR_RGB( '', 0.643137276172638, 0.678431391716003, 0.698039233684540 );
#346 = CARTESIAN_POINT( '', ( 25.4000000000000, -1.01600000000000, 11.4300000000000 ) );
#347 = CARTESIAN_POINT( '', ( 25.4000000000000, -1.01600000000000, 11.4300000000000 ) );
#348 = VECTOR( '', #394, 1000.00000000000 );
#349 = CARTESIAN_POINT( '', ( 25.4000000000000, 0.000000000000000, 11.4300000000000 ) );
#350 = CARTESIAN_POINT( '', ( 6.98500000000000, 0.000000000000000, -6.98500000000000 ) );
#351 = VECTOR( '', #395, 1000.00000000000 );
#352 = CARTESIAN_POINT( '', ( 25.4000000000000, -1.01600000000000, 11.4300000000000 ) );
#353 = VECTOR( '', #396, 1000.00000000000 );
#354 = COLOUR_RGB( '', 0.643137276172638, 0.678431391716003, 0.698039233684540 );
#355 = CARTESIAN_POINT( '', ( 12.7000000000000, -1.01600000000000, 46.6018055081688 ) );
#356 = AXIS2_PLACEMENT_3D( '', #397, #398, #399 );
#357 = CARTESIAN_POINT( '', ( 25.4000000000000, -1.01600000000000, 63.5000000000000 ) );
#358 = VECTOR( '', #400, 1000.00000000000 );
#359 = CARTESIAN_POINT( '', ( 1.39977129142542E-015, -1.01600000000000, 11.4300000000000 ) );
#360 = CARTESIAN_POINT( '', ( 0.000000000000000, -1.01600000000000, 0.000000000000000 ) );
#361 = VECTOR( '', #401, 1000.00000000000 );
#362 = CARTESIAN_POINT( '', ( 6.35000000000000, -1.01600000000000, 5.08000000000000 ) );
#363 = VECTOR( '', #402, 1000.00000000000 );
#364 = COLOUR_RGB( '', 0.643137276172638, 0.678431391716003, 0.698039233684540 );
#365 = CARTESIAN_POINT( '', ( 1.39977129142542E-015, 0.000000000000000, 11.4300000000000 ) );
#366 = CARTESIAN_POINT( '', ( 0.000000000000000, 0.000000000000000, 0.000000000000000 ) );
#367 = VECTOR( '', #403, 1000.00000000000 );
#368 = CARTESIAN_POINT( '', ( 1.39977129142543E-015, -1.01600000000000, 11.4300000000000 ) );
#369 = VECTOR( '', #404, 1000.00000000000 );
#370 = COLOUR_RGB( '', 0.643137276172638, 0.678431391716003, 0.698039233684540 );
#371 = CARTESIAN_POINT( '', ( 12.7000000000000, -3.25260651745651E-015, 46.6018055081688 ) );
#372 = AXIS2_PLACEMENT_3D( '', #405, #406, #407 );
#373 = COLOUR_RGB( '', 0.643137276172638, 0.678431391716003, 0.698039233684540 );
#374 = CARTESIAN_POINT( '', ( 25.4000000000000, 0.000000000000000, 63.5000000000000 ) );
#375 = VECTOR( '', #408, 1000.00000000000 );
#376 = COLOUR_RGB( '', 0.643137276172638, 0.678431391716003, 0.698039233684540 );
#377 = CARTESIAN_POINT( '', ( 5.71500000000000, 0.000000000000000, 5.71500000000000 ) );
#378 = VECTOR( '', #409, 1000.00000000000 );
#379 = COLOUR_RGB( '', 0.643137276172638, 0.678431391716003, 0.698039233684540 );
#380 = CARTESIAN_POINT( '', ( 12.7000000000000, -1.01600000000000, 19.0555055081688 ) );
#381 = DIRECTION( '', ( 0.000000000000000, 1.00000000000000, 0.000000000000000 ) );
#382 = DIRECTION( '', ( 0.000000000000000, 0.000000000000000, 1.00000000000000 ) );
#383 = CARTESIAN_POINT( '', ( 12.7000000000000, -3.25260651745651E-015, 19.0555055081688 ) );
#384 = DIRECTION( '', ( 0.000000000000000, 1.00000000000000, 0.000000000000000 ) );
#385 = DIRECTION( '', ( 0.000000000000000, 0.000000000000000, 1.00000000000000 ) );
#386 = DIRECTION( '', ( -1.00000000000000, 0.000000000000000, 0.000000000000000 ) );
#387 = DIRECTION( '', ( 0.000000000000000, 1.00000000000000, 0.000000000000000 ) );
#388 = DIRECTION( '', ( -1.00000000000000, 0.000000000000000, 0.000000000000000 ) );
#389 = DIRECTION( '', ( 0.000000000000000, -1.00000000000000, 0.000000000000000 ) );
#390 = DIRECTION( '', ( 1.00000000000000, 0.000000000000000, 0.000000000000000 ) );
#391 = DIRECTION( '', ( 0.000000000000000, 1.00000000000000, 0.000000000000000 ) );
#392 = DIRECTION( '', ( 1.00000000000000, 0.000000000000000, 0.000000000000000 ) );
#393 = DIRECTION( '', ( 0.000000000000000, 1.00000000000000, 0.000000000000000 ) );
#394 = DIRECTION( '', ( -0.707106781186548, 0.000000000000000, -0.707106781186548 ) );
#395 = DIRECTION( '', ( 0.707106781186548, 0.000000000000000, 0.707106781186548 ) );
#396 = DIRECTION( '', ( 0.000000000000000, -1.00000000000000, 0.000000000000000 ) );
#397 = CARTESIAN_POINT( '', ( 12.7000000000000, -1.01600000000000, 44.4555055081688 ) );
#398 = DIRECTION( '', ( 0.000000000000000, 1.00000000000000, 0.000000000000000 ) );
#399 = DIRECTION( '', ( 0.000000000000000, 0.000000000000000, 1.00000000000000 ) );
#400 = DIRECTION( '', ( 0.000000000000000, 0.000000000000000, -1.00000000000000 ) );
#401 = DIRECTION( '', ( 1.22464679914735E-016, 0.000000000000000, 1.00000000000000 ) );
#402 = DIRECTION( '', ( -0.707106781186548, 0.000000000000000, 0.707106781186548 ) );
#403 = DIRECTION( '', ( 1.22464679914735E-016, 0.000000000000000, 1.00000000000000 ) );
#404 = DIRECTION( '', ( 0.000000000000000, 1.00000000000000, 0.000000000000000 ) );
#405 = CARTESIAN_POINT( '', ( 12.7000000000000, -3.25260651745651E-015, 44.4555055081688 ) );
#406 = DIRECTION( '', ( 0.000000000000000, 1.00000000000000, 0.000000000000000 ) );
#407 = DIRECTION( '', ( 0.000000000000000, 0.000000000000000, 1.00000000000000 ) );
#408 = DIRECTION( '', ( 0.000000000000000, 0.000000000000000, -1.00000000000000 ) );
#409 = DIRECTION( '', ( 0.707106781186548, 0.000000000000000, -0.707106781186548 ) );
ENDSEC;
END-ISO-10303-21;
