ISO-10303-21;
HEADER;
FILE_DESCRIPTION( ( 'Unknown' ), '1' );
FILE_NAME( 'C:/Users/dugger/Dropbox/labShareRobert/cadToGo/ToothedRail.stp', 'Unknown', ( 'Unknown' ), ( 'Unknown' ), 'PSStep 16.0.42', 'Unknown', '  ' );
FILE_SCHEMA( ( 'AUTOMOTIVE_DESIGN { 1 0 10303 214 1 1 1 1 }' ) );
ENDSEC;
DATA;
#1 = MECHANICAL_DESIGN_GEOMETRIC_PRESENTATION_REPRESENTATION( ' ', ( #10, #11, #12, #13, #14, #15, #16, #17, #18, #19, #20 ), #6 );
#2 = PRODUCT_DEFINITION_CONTEXT( '', #21, 'design' );
#3 = APPLICATION_PROTOCOL_DEFINITION( 'international standard', 'automotive_design', 2001, #21 );
#4 = PRODUCT_CATEGORY_RELATIONSHIP( 'NONE', 'NONE', #22, #23 );
#5 = SHAPE_DEFINITION_REPRESENTATION( #24, #25 );
#6 =  ( GEOMETRIC_REPRESENTATION_CONTEXT( 3 )GLOBAL_UNCERTAINTY_ASSIGNED_CONTEXT( ( #28 ) )GLOBAL_UNIT_ASSIGNED_CONTEXT( ( #30, #31, #32 ) )REPRESENTATION_CONTEXT( 'NONE', 'WORKSPACE' ) );
#10 = STYLED_ITEM( '', ( #34 ), #35 );
#11 = STYLED_ITEM( '', ( #36 ), #37 );
#12 = STYLED_ITEM( '', ( #38 ), #39 );
#13 = STYLED_ITEM( '', ( #40 ), #41 );
#14 = STYLED_ITEM( '', ( #42 ), #43 );
#15 = STYLED_ITEM( '', ( #44 ), #45 );
#16 = STYLED_ITEM( '', ( #46 ), #47 );
#17 = STYLED_ITEM( '', ( #48 ), #49 );
#18 = STYLED_ITEM( '', ( #50 ), #51 );
#19 = STYLED_ITEM( '', ( #52 ), #53 );
#20 = STYLED_ITEM( '', ( #54 ), #55 );
#21 = APPLICATION_CONTEXT( 'core data for automotive mechanical design processes' );
#22 = PRODUCT_CATEGORY( 'part', 'NONE' );
#23 = PRODUCT_RELATED_PRODUCT_CATEGORY( 'detail', ' ', ( #56 ) );
#24 = PRODUCT_DEFINITION_SHAPE( 'NONE', 'NONE', #57 );
#25 = ADVANCED_BREP_SHAPE_REPRESENTATION( '1', ( #58, #59 ), #6 );
#28 = UNCERTAINTY_MEASURE_WITH_UNIT( LENGTH_MEASURE( 0.00100000000000000 ), #30, '', '' );
#30 =  ( CONVERSION_BASED_UNIT( 'MILLIMETRE', #62 )LENGTH_UNIT(  )NAMED_UNIT( #65 ) );
#31 =  ( NAMED_UNIT( #67 )PLANE_ANGLE_UNIT(  )SI_UNIT( $, .RADIAN. ) );
#32 =  ( NAMED_UNIT( #67 )SI_UNIT( $, .STERADIAN. )SOLID_ANGLE_UNIT(  ) );
#34 = PRESENTATION_STYLE_ASSIGNMENT( ( #73 ) );
#35 = ADVANCED_FACE( '', ( #74 ), #75, .F. );
#36 = PRESENTATION_STYLE_ASSIGNMENT( ( #76 ) );
#37 = ADVANCED_FACE( '', ( #77, #78 ), #79, .F. );
#38 = PRESENTATION_STYLE_ASSIGNMENT( ( #80 ) );
#39 = ADVANCED_FACE( '', ( #81, #82 ), #83, .F. );
#40 = PRESENTATION_STYLE_ASSIGNMENT( ( #84 ) );
#41 = ADVANCED_FACE( '', ( #85, #86 ), #87, .F. );
#42 = PRESENTATION_STYLE_ASSIGNMENT( ( #88 ) );
#43 = ADVANCED_FACE( '', ( #89, #90, #91, #92, #93, #94 ), #95, .F. );
#44 = PRESENTATION_STYLE_ASSIGNMENT( ( #96 ) );
#45 = ADVANCED_FACE( '', ( #97 ), #98, .F. );
#46 = PRESENTATION_STYLE_ASSIGNMENT( ( #99 ) );
#47 = ADVANCED_FACE( '', ( #100, #101 ), #102, .F. );
#48 = PRESENTATION_STYLE_ASSIGNMENT( ( #103 ) );
#49 = ADVANCED_FACE( '', ( #104, #105, #106, #107, #108, #109 ), #110, .T. );
#50 = PRESENTATION_STYLE_ASSIGNMENT( ( #111 ) );
#51 = ADVANCED_FACE( '', ( #112, #113 ), #114, .F. );
#52 = PRESENTATION_STYLE_ASSIGNMENT( ( #115 ) );
#53 = ADVANCED_FACE( '', ( #116 ), #117, .F. );
#54 = PRESENTATION_STYLE_ASSIGNMENT( ( #118 ) );
#55 = ADVANCED_FACE( '', ( #119 ), #120, .F. );
#56 = PRODUCT( '1', '1', 'PART-1-DESC', ( #121 ) );
#57 = PRODUCT_DEFINITION( 'NONE', 'NONE', #122, #2 );
#58 = MANIFOLD_SOLID_BREP( '1', #123 );
#59 = AXIS2_PLACEMENT_3D( '', #124, #125, #126 );
#62 = LENGTH_MEASURE_WITH_UNIT( LENGTH_MEASURE( 1.00000000000000 ), #127 );
#65 = DIMENSIONAL_EXPONENTS( 1.00000000000000, 0.000000000000000, 0.000000000000000, 0.000000000000000, 0.000000000000000, 0.000000000000000, 0.000000000000000 );
#67 = DIMENSIONAL_EXPONENTS( 0.000000000000000, 0.000000000000000, 0.000000000000000, 0.000000000000000, 0.000000000000000, 0.000000000000000, 0.000000000000000 );
#73 = SURFACE_STYLE_USAGE( .BOTH., #128 );
#74 = FACE_OUTER_BOUND( '', #129, .T. );
#75 = PLANE( '', #130 );
#76 = SURFACE_STYLE_USAGE( .BOTH., #131 );
#77 = FACE_OUTER_BOUND( '', #132, .T. );
#78 = FACE_OUTER_BOUND( '', #133, .T. );
#79 = CYLINDRICAL_SURFACE( '', #134, 1.47320000000000 );
#80 = SURFACE_STYLE_USAGE( .BOTH., #135 );
#81 = FACE_OUTER_BOUND( '', #136, .T. );
#82 = FACE_OUTER_BOUND( '', #137, .T. );
#83 = CYLINDRICAL_SURFACE( '', #138, 1.47320000000000 );
#84 = SURFACE_STYLE_USAGE( .BOTH., #139 );
#85 = FACE_OUTER_BOUND( '', #140, .T. );
#86 = FACE_OUTER_BOUND( '', #141, .T. );
#87 = CYLINDRICAL_SURFACE( '', #142, 1.47320000000000 );
#88 = SURFACE_STYLE_USAGE( .BOTH., #143 );
#89 = FACE_BOUND( '', #144, .T. );
#90 = FACE_BOUND( '', #145, .T. );
#91 = FACE_BOUND( '', #146, .T. );
#92 = FACE_BOUND( '', #147, .T. );
#93 = FACE_BOUND( '', #148, .T. );
#94 = FACE_OUTER_BOUND( '', #149, .T. );
#95 = PLANE( '', #150 );
#96 = SURFACE_STYLE_USAGE( .BOTH., #151 );
#97 = FACE_OUTER_BOUND( '', #152, .T. );
#98 = PLANE( '', #153 );
#99 = SURFACE_STYLE_USAGE( .BOTH., #154 );
#100 = FACE_OUTER_BOUND( '', #155, .T. );
#101 = FACE_OUTER_BOUND( '', #156, .T. );
#102 = CYLINDRICAL_SURFACE( '', #157, 1.47320000000000 );
#103 = SURFACE_STYLE_USAGE( .BOTH., #158 );
#104 = FACE_BOUND( '', #159, .T. );
#105 = FACE_BOUND( '', #160, .T. );
#106 = FACE_BOUND( '', #161, .T. );
#107 = FACE_BOUND( '', #162, .T. );
#108 = FACE_BOUND( '', #163, .T. );
#109 = FACE_OUTER_BOUND( '', #164, .T. );
#110 = PLANE( '', #165 );
#111 = SURFACE_STYLE_USAGE( .BOTH., #166 );
#112 = FACE_OUTER_BOUND( '', #167, .T. );
#113 = FACE_OUTER_BOUND( '', #168, .T. );
#114 = CYLINDRICAL_SURFACE( '', #169, 1.47320000000000 );
#115 = SURFACE_STYLE_USAGE( .BOTH., #170 );
#116 = FACE_OUTER_BOUND( '', #171, .T. );
#117 = PLANE( '', #172 );
#118 = SURFACE_STYLE_USAGE( .BOTH., #173 );
#119 = FACE_OUTER_BOUND( '', #174, .T. );
#120 = PLANE( '', #175 );
#121 = PRODUCT_CONTEXT( '', #21, 'mechanical' );
#122 = PRODUCT_DEFINITION_FORMATION_WITH_SPECIFIED_SOURCE( ' ', 'NONE', #56, .NOT_KNOWN. );
#123 = CLOSED_SHELL( '', ( #43, #37, #49, #45, #55, #39, #47, #51, #41, #35, #53 ) );
#124 = CARTESIAN_POINT( '', ( 0.000000000000000, 0.000000000000000, 0.000000000000000 ) );
#125 = DIRECTION( '', ( 0.000000000000000, 0.000000000000000, 1.00000000000000 ) );
#126 = DIRECTION( '', ( 1.00000000000000, 0.000000000000000, 0.000000000000000 ) );
#127 =  ( LENGTH_UNIT(  )NAMED_UNIT( #65 )SI_UNIT( .MILLI., .METRE. ) );
#128 = SURFACE_SIDE_STYLE( '', ( #177 ) );
#129 = EDGE_LOOP( '', ( #178, #179, #180, #181 ) );
#130 = AXIS2_PLACEMENT_3D( '', #182, #183, #184 );
#131 = SURFACE_SIDE_STYLE( '', ( #185 ) );
#132 = EDGE_LOOP( '', ( #186 ) );
#133 = EDGE_LOOP( '', ( #187 ) );
#134 = AXIS2_PLACEMENT_3D( '', #188, #189, #190 );
#135 = SURFACE_SIDE_STYLE( '', ( #191 ) );
#136 = EDGE_LOOP( '', ( #192 ) );
#137 = EDGE_LOOP( '', ( #193 ) );
#138 = AXIS2_PLACEMENT_3D( '', #194, #195, #196 );
#139 = SURFACE_SIDE_STYLE( '', ( #197 ) );
#140 = EDGE_LOOP( '', ( #198 ) );
#141 = EDGE_LOOP( '', ( #199 ) );
#142 = AXIS2_PLACEMENT_3D( '', #200, #201, #202 );
#143 = SURFACE_SIDE_STYLE( '', ( #203 ) );
#144 = EDGE_LOOP( '', ( #204 ) );
#145 = EDGE_LOOP( '', ( #205 ) );
#146 = EDGE_LOOP( '', ( #206 ) );
#147 = EDGE_LOOP( '', ( #207 ) );
#148 = EDGE_LOOP( '', ( #208 ) );
#149 = EDGE_LOOP( '', ( #209, #210, #211, #212 ) );
#150 = AXIS2_PLACEMENT_3D( '', #213, #214, #215 );
#151 = SURFACE_SIDE_STYLE( '', ( #216 ) );
#152 = EDGE_LOOP( '', ( #217, #218, #219, #220 ) );
#153 = AXIS2_PLACEMENT_3D( '', #221, #222, #223 );
#154 = SURFACE_SIDE_STYLE( '', ( #224 ) );
#155 = EDGE_LOOP( '', ( #225 ) );
#156 = EDGE_LOOP( '', ( #226 ) );
#157 = AXIS2_PLACEMENT_3D( '', #227, #228, #229 );
#158 = SURFACE_SIDE_STYLE( '', ( #230 ) );
#159 = EDGE_LOOP( '', ( #231 ) );
#160 = EDGE_LOOP( '', ( #232 ) );
#161 = EDGE_LOOP( '', ( #233 ) );
#162 = EDGE_LOOP( '', ( #234 ) );
#163 = EDGE_LOOP( '', ( #235 ) );
#164 = EDGE_LOOP( '', ( #236, #237, #238, #239 ) );
#165 = AXIS2_PLACEMENT_3D( '', #240, #241, #242 );
#166 = SURFACE_SIDE_STYLE( '', ( #243 ) );
#167 = EDGE_LOOP( '', ( #244 ) );
#168 = EDGE_LOOP( '', ( #245 ) );
#169 = AXIS2_PLACEMENT_3D( '', #246, #247, #248 );
#170 = SURFACE_SIDE_STYLE( '', ( #249 ) );
#171 = EDGE_LOOP( '', ( #250, #251, #252, #253 ) );
#172 = AXIS2_PLACEMENT_3D( '', #254, #255, #256 );
#173 = SURFACE_SIDE_STYLE( '', ( #257 ) );
#174 = EDGE_LOOP( '', ( #258, #259, #260, #261 ) );
#175 = AXIS2_PLACEMENT_3D( '', #262, #263, #264 );
#177 = SURFACE_STYLE_FILL_AREA( #265 );
#178 = ORIENTED_EDGE( '', *, *, #266, .T. );
#179 = ORIENTED_EDGE( '', *, *, #267, .F. );
#180 = ORIENTED_EDGE( '', *, *, #268, .F. );
#181 = ORIENTED_EDGE( '', *, *, #269, .T. );
#182 = CARTESIAN_POINT( '', ( -63.5000000000000, 3.17500000000000, 4.75000000000000 ) );
#183 = DIRECTION( '', ( 0.000000000000000, 0.000000000000000, -1.00000000000000 ) );
#184 = DIRECTION( '', ( -1.00000000000000, 0.000000000000000, 0.000000000000000 ) );
#185 = SURFACE_STYLE_FILL_AREA( #270 );
#186 = ORIENTED_EDGE( '', *, *, #271, .T. );
#187 = ORIENTED_EDGE( '', *, *, #272, .T. );
#188 = CARTESIAN_POINT( '', ( 50.8000000000000, 127.424843044832, -1.39720000000000 ) );
#189 = DIRECTION( '', ( -0.000000000000000, 1.00000000000000, -0.000000000000000 ) );
#190 = DIRECTION( '', ( 0.000000000000000, 0.000000000000000, -1.00000000000000 ) );
#191 = SURFACE_STYLE_FILL_AREA( #273 );
#192 = ORIENTED_EDGE( '', *, *, #274, .T. );
#193 = ORIENTED_EDGE( '', *, *, #275, .T. );
#194 = CARTESIAN_POINT( '', ( -0.0113879274768677, 127.424843044832, -1.39720000000000 ) );
#195 = DIRECTION( '', ( -0.000000000000000, 1.00000000000000, -0.000000000000000 ) );
#196 = DIRECTION( '', ( 0.000000000000000, 0.000000000000000, -1.00000000000000 ) );
#197 = SURFACE_STYLE_FILL_AREA( #276 );
#198 = ORIENTED_EDGE( '', *, *, #277, .T. );
#199 = ORIENTED_EDGE( '', *, *, #278, .T. );
#200 = CARTESIAN_POINT( '', ( 25.3886120725232, 127.424843044832, -1.39720000000000 ) );
#201 = DIRECTION( '', ( -0.000000000000000, 1.00000000000000, -0.000000000000000 ) );
#202 = DIRECTION( '', ( 0.000000000000000, 0.000000000000000, -1.00000000000000 ) );
#203 = SURFACE_STYLE_FILL_AREA( #279 );
#204 = ORIENTED_EDGE( '', *, *, #280, .F. );
#205 = ORIENTED_EDGE( '', *, *, #281, .F. );
#206 = ORIENTED_EDGE( '', *, *, #274, .F. );
#207 = ORIENTED_EDGE( '', *, *, #277, .F. );
#208 = ORIENTED_EDGE( '', *, *, #271, .F. );
#209 = ORIENTED_EDGE( '', *, *, #282, .F. );
#210 = ORIENTED_EDGE( '', *, *, #266, .F. );
#211 = ORIENTED_EDGE( '', *, *, #283, .F. );
#212 = ORIENTED_EDGE( '', *, *, #284, .F. );
#213 = CARTESIAN_POINT( '', ( 0.000000000000000, 0.000000000000000, 0.000000000000000 ) );
#214 = DIRECTION( '', ( 0.000000000000000, 1.00000000000000, 0.000000000000000 ) );
#215 = DIRECTION( '', ( 0.000000000000000, 0.000000000000000, 1.00000000000000 ) );
#216 = SURFACE_STYLE_FILL_AREA( #285 );
#217 = ORIENTED_EDGE( '', *, *, #282, .T. );
#218 = ORIENTED_EDGE( '', *, *, #286, .F. );
#219 = ORIENTED_EDGE( '', *, *, #287, .F. );
#220 = ORIENTED_EDGE( '', *, *, #267, .T. );
#221 = CARTESIAN_POINT( '', ( 63.5000000000000, 3.17500000000000, 4.76250000000000 ) );
#222 = DIRECTION( '', ( -1.00000000000000, 0.000000000000000, 0.000000000000000 ) );
#223 = DIRECTION( '', ( 0.000000000000000, 0.000000000000000, 1.00000000000000 ) );
#224 = SURFACE_STYLE_FILL_AREA( #288 );
#225 = ORIENTED_EDGE( '', *, *, #281, .T. );
#226 = ORIENTED_EDGE( '', *, *, #289, .T. );
#227 = CARTESIAN_POINT( '', ( -25.4113879274768, 127.424843044832, -1.39720000000000 ) );
#228 = DIRECTION( '', ( -0.000000000000000, 1.00000000000000, -0.000000000000000 ) );
#229 = DIRECTION( '', ( 0.000000000000000, 0.000000000000000, -1.00000000000000 ) );
#230 = SURFACE_STYLE_FILL_AREA( #290 );
#231 = ORIENTED_EDGE( '', *, *, #291, .F. );
#232 = ORIENTED_EDGE( '', *, *, #289, .F. );
#233 = ORIENTED_EDGE( '', *, *, #275, .F. );
#234 = ORIENTED_EDGE( '', *, *, #278, .F. );
#235 = ORIENTED_EDGE( '', *, *, #272, .F. );
#236 = ORIENTED_EDGE( '', *, *, #287, .T. );
#237 = ORIENTED_EDGE( '', *, *, #292, .T. );
#238 = ORIENTED_EDGE( '', *, *, #293, .T. );
#239 = ORIENTED_EDGE( '', *, *, #268, .T. );
#240 = CARTESIAN_POINT( '', ( -1.07153055959455E-017, 3.00000000000000, 0.000000000000000 ) );
#241 = DIRECTION( '', ( 0.000000000000000, 1.00000000000000, 0.000000000000000 ) );
#242 = DIRECTION( '', ( 0.000000000000000, 0.000000000000000, 1.00000000000000 ) );
#243 = SURFACE_STYLE_FILL_AREA( #294 );
#244 = ORIENTED_EDGE( '', *, *, #280, .T. );
#245 = ORIENTED_EDGE( '', *, *, #291, .T. );
#246 = CARTESIAN_POINT( '', ( -50.8113879274769, 127.424843044832, -1.39720000000000 ) );
#247 = DIRECTION( '', ( -0.000000000000000, 1.00000000000000, -0.000000000000000 ) );
#248 = DIRECTION( '', ( 0.000000000000000, 0.000000000000000, -1.00000000000000 ) );
#249 = SURFACE_STYLE_FILL_AREA( #295 );
#250 = ORIENTED_EDGE( '', *, *, #283, .T. );
#251 = ORIENTED_EDGE( '', *, *, #269, .F. );
#252 = ORIENTED_EDGE( '', *, *, #293, .F. );
#253 = ORIENTED_EDGE( '', *, *, #296, .T. );
#254 = CARTESIAN_POINT( '', ( -63.5000000000000, 3.17500000000000, -4.76250000000000 ) );
#255 = DIRECTION( '', ( 1.00000000000000, 0.000000000000000, 0.000000000000000 ) );
#256 = DIRECTION( '', ( 0.000000000000000, 0.000000000000000, -1.00000000000000 ) );
#257 = SURFACE_STYLE_FILL_AREA( #297 );
#258 = ORIENTED_EDGE( '', *, *, #284, .T. );
#259 = ORIENTED_EDGE( '', *, *, #296, .F. );
#260 = ORIENTED_EDGE( '', *, *, #292, .F. );
#261 = ORIENTED_EDGE( '', *, *, #286, .T. );
#262 = CARTESIAN_POINT( '', ( 63.5000000000000, 3.17500000000000, -4.75000000000000 ) );
#263 = DIRECTION( '', ( 0.000000000000000, 0.000000000000000, 1.00000000000000 ) );
#264 = DIRECTION( '', ( 1.00000000000000, 0.000000000000000, 0.000000000000000 ) );
#265 = FILL_AREA_STYLE( '', ( #298 ) );
#266 = EDGE_CURVE( '', #299, #300, #301, .T. );
#267 = EDGE_CURVE( '', #302, #300, #303, .T. );
#268 = EDGE_CURVE( '', #304, #302, #305, .T. );
#269 = EDGE_CURVE( '', #304, #299, #306, .T. );
#270 = FILL_AREA_STYLE( '', ( #307 ) );
#271 = EDGE_CURVE( '', #308, #308, #309, .T. );
#272 = EDGE_CURVE( '', #310, #310, #311, .T. );
#273 = FILL_AREA_STYLE( '', ( #312 ) );
#274 = EDGE_CURVE( '', #313, #313, #314, .T. );
#275 = EDGE_CURVE( '', #315, #315, #316, .T. );
#276 = FILL_AREA_STYLE( '', ( #317 ) );
#277 = EDGE_CURVE( '', #318, #318, #319, .T. );
#278 = EDGE_CURVE( '', #320, #320, #321, .T. );
#279 = FILL_AREA_STYLE( '', ( #322 ) );
#280 = EDGE_CURVE( '', #323, #323, #324, .T. );
#281 = EDGE_CURVE( '', #325, #325, #326, .T. );
#282 = EDGE_CURVE( '', #300, #327, #328, .T. );
#283 = EDGE_CURVE( '', #329, #299, #330, .T. );
#284 = EDGE_CURVE( '', #327, #329, #331, .T. );
#285 = FILL_AREA_STYLE( '', ( #332 ) );
#286 = EDGE_CURVE( '', #333, #327, #334, .T. );
#287 = EDGE_CURVE( '', #302, #333, #335, .T. );
#288 = FILL_AREA_STYLE( '', ( #336 ) );
#289 = EDGE_CURVE( '', #337, #337, #338, .T. );
#290 = FILL_AREA_STYLE( '', ( #339 ) );
#291 = EDGE_CURVE( '', #340, #340, #341, .T. );
#292 = EDGE_CURVE( '', #333, #342, #343, .T. );
#293 = EDGE_CURVE( '', #342, #304, #344, .T. );
#294 = FILL_AREA_STYLE( '', ( #345 ) );
#295 = FILL_AREA_STYLE( '', ( #346 ) );
#296 = EDGE_CURVE( '', #342, #329, #347, .T. );
#297 = FILL_AREA_STYLE( '', ( #348 ) );
#298 = FILL_AREA_STYLE_COLOUR( '', #349 );
#299 = VERTEX_POINT( '', #350 );
#300 = VERTEX_POINT( '', #351 );
#301 = LINE( '', #352, #353 );
#302 = VERTEX_POINT( '', #354 );
#303 = LINE( '', #355, #356 );
#304 = VERTEX_POINT( '', #357 );
#305 = LINE( '', #358, #359 );
#306 = LINE( '', #360, #361 );
#307 = FILL_AREA_STYLE_COLOUR( '', #362 );
#308 = VERTEX_POINT( '', #363 );
#309 = CIRCLE( '', #364, 1.47320000000000 );
#310 = VERTEX_POINT( '', #365 );
#311 = CIRCLE( '', #366, 1.47320000000000 );
#312 = FILL_AREA_STYLE_COLOUR( '', #367 );
#313 = VERTEX_POINT( '', #368 );
#314 = CIRCLE( '', #369, 1.47320000000000 );
#315 = VERTEX_POINT( '', #370 );
#316 = CIRCLE( '', #371, 1.47320000000000 );
#317 = FILL_AREA_STYLE_COLOUR( '', #372 );
#318 = VERTEX_POINT( '', #373 );
#319 = CIRCLE( '', #374, 1.47320000000000 );
#320 = VERTEX_POINT( '', #375 );
#321 = CIRCLE( '', #376, 1.47320000000000 );
#322 = FILL_AREA_STYLE_COLOUR( '', #377 );
#323 = VERTEX_POINT( '', #378 );
#324 = CIRCLE( '', #379, 1.47320000000000 );
#325 = VERTEX_POINT( '', #380 );
#326 = CIRCLE( '', #381, 1.47320000000000 );
#327 = VERTEX_POINT( '', #382 );
#328 = LINE( '', #383, #384 );
#329 = VERTEX_POINT( '', #385 );
#330 = LINE( '', #386, #387 );
#331 = LINE( '', #388, #389 );
#332 = FILL_AREA_STYLE_COLOUR( '', #390 );
#333 = VERTEX_POINT( '', #391 );
#334 = LINE( '', #392, #393 );
#335 = LINE( '', #394, #395 );
#336 = FILL_AREA_STYLE_COLOUR( '', #396 );
#337 = VERTEX_POINT( '', #397 );
#338 = CIRCLE( '', #398, 1.47320000000000 );
#339 = FILL_AREA_STYLE_COLOUR( '', #399 );
#340 = VERTEX_POINT( '', #400 );
#341 = CIRCLE( '', #401, 1.47320000000000 );
#342 = VERTEX_POINT( '', #402 );
#343 = LINE( '', #403, #404 );
#344 = LINE( '', #405, #406 );
#345 = FILL_AREA_STYLE_COLOUR( '', #407 );
#346 = FILL_AREA_STYLE_COLOUR( '', #408 );
#347 = LINE( '', #409, #410 );
#348 = FILL_AREA_STYLE_COLOUR( '', #411 );
#349 = COLOUR_RGB( '', 0.643137276172638, 0.678431391716003, 0.698039233684540 );
#350 = CARTESIAN_POINT( '', ( -63.5000000000000, 0.000000000000000, 4.75000000000000 ) );
#351 = CARTESIAN_POINT( '', ( 63.5000000000000, 0.000000000000000, 4.75000000000000 ) );
#352 = CARTESIAN_POINT( '', ( -63.5000000000000, 0.000000000000000, 4.75000000000000 ) );
#353 = VECTOR( '', #412, 1000.00000000000 );
#354 = CARTESIAN_POINT( '', ( 63.5000000000000, 3.00000000000000, 4.75000000000000 ) );
#355 = CARTESIAN_POINT( '', ( 63.5000000000000, 3.17500000000000, 4.75000000000000 ) );
#356 = VECTOR( '', #413, 1000.00000000000 );
#357 = CARTESIAN_POINT( '', ( -63.5000000000000, 3.00000000000000, 4.75000000000000 ) );
#358 = CARTESIAN_POINT( '', ( -63.5000000000000, 3.00000000000000, 4.75000000000000 ) );
#359 = VECTOR( '', #414, 1000.00000000000 );
#360 = CARTESIAN_POINT( '', ( -63.5000000000000, 3.17500000000000, 4.75000000000000 ) );
#361 = VECTOR( '', #415, 1000.00000000000 );
#362 = COLOUR_RGB( '', 0.643137276172638, 0.678431391716003, 0.698039233684540 );
#363 = CARTESIAN_POINT( '', ( 52.2732000000000, 0.000000000000000, -1.39720000000000 ) );
#364 = AXIS2_PLACEMENT_3D( '', #416, #417, #418 );
#365 = CARTESIAN_POINT( '', ( 50.8000000000000, 3.00000000000000, 0.0760000000000001 ) );
#366 = AXIS2_PLACEMENT_3D( '', #419, #420, #421 );
#367 = COLOUR_RGB( '', 0.643137276172638, 0.678431391716003, 0.698039233684540 );
#368 = CARTESIAN_POINT( '', ( 1.46181207252313, 0.000000000000000, -1.39720000000000 ) );
#369 = AXIS2_PLACEMENT_3D( '', #422, #423, #424 );
#370 = CARTESIAN_POINT( '', ( -0.0113879274768677, 3.00000000000000, 0.0760000000000001 ) );
#371 = AXIS2_PLACEMENT_3D( '', #425, #426, #427 );
#372 = COLOUR_RGB( '', 0.643137276172638, 0.678431391716003, 0.698039233684540 );
#373 = CARTESIAN_POINT( '', ( 26.8618120725232, 0.000000000000000, -1.39720000000000 ) );
#374 = AXIS2_PLACEMENT_3D( '', #428, #429, #430 );
#375 = CARTESIAN_POINT( '', ( 25.3886120725232, 3.00000000000000, 0.0760000000000001 ) );
#376 = AXIS2_PLACEMENT_3D( '', #431, #432, #433 );
#377 = COLOUR_RGB( '', 0.643137276172638, 0.678431391716003, 0.698039233684540 );
#378 = CARTESIAN_POINT( '', ( -49.3381879274769, 0.000000000000000, -1.39720000000000 ) );
#379 = AXIS2_PLACEMENT_3D( '', #434, #435, #436 );
#380 = CARTESIAN_POINT( '', ( -23.9381879274769, 0.000000000000000, -1.39720000000000 ) );
#381 = AXIS2_PLACEMENT_3D( '', #437, #438, #439 );
#382 = CARTESIAN_POINT( '', ( 63.5000000000000, 0.000000000000000, -4.75000000000000 ) );
#383 = CARTESIAN_POINT( '', ( 63.5000000000000, 0.000000000000000, 4.76250000000000 ) );
#384 = VECTOR( '', #440, 1000.00000000000 );
#385 = CARTESIAN_POINT( '', ( -63.5000000000000, 0.000000000000000, -4.75000000000000 ) );
#386 = CARTESIAN_POINT( '', ( -63.5000000000000, 0.000000000000000, -4.76250000000000 ) );
#387 = VECTOR( '', #441, 1000.00000000000 );
#388 = CARTESIAN_POINT( '', ( 63.5000000000000, 0.000000000000000, -4.75000000000000 ) );
#389 = VECTOR( '', #442, 1000.00000000000 );
#390 = COLOUR_RGB( '', 0.643137276172638, 0.678431391716003, 0.698039233684540 );
#391 = CARTESIAN_POINT( '', ( 63.5000000000000, 3.00000000000000, -4.75000000000000 ) );
#392 = CARTESIAN_POINT( '', ( 63.5000000000000, 3.17500000000000, -4.75000000000000 ) );
#393 = VECTOR( '', #443, 1000.00000000000 );
#394 = CARTESIAN_POINT( '', ( 63.5000000000000, 3.00000000000000, 4.76250000000000 ) );
#395 = VECTOR( '', #444, 1000.00000000000 );
#396 = COLOUR_RGB( '', 0.643137276172638, 0.678431391716003, 0.698039233684540 );
#397 = CARTESIAN_POINT( '', ( -25.4113879274768, 3.00000000000000, 0.0760000000000001 ) );
#398 = AXIS2_PLACEMENT_3D( '', #445, #446, #447 );
#399 = COLOUR_RGB( '', 0.643137276172638, 0.678431391716003, 0.698039233684540 );
#400 = CARTESIAN_POINT( '', ( -50.8113879274769, 3.00000000000000, 0.0760000000000001 ) );
#401 = AXIS2_PLACEMENT_3D( '', #448, #449, #450 );
#402 = CARTESIAN_POINT( '', ( -63.5000000000000, 3.00000000000000, -4.75000000000000 ) );
#403 = CARTESIAN_POINT( '', ( 63.5000000000000, 3.00000000000000, -4.75000000000000 ) );
#404 = VECTOR( '', #451, 1000.00000000000 );
#405 = CARTESIAN_POINT( '', ( -63.5000000000000, 3.00000000000000, -4.76250000000000 ) );
#406 = VECTOR( '', #452, 1000.00000000000 );
#407 = COLOUR_RGB( '', 0.643137276172638, 0.678431391716003, 0.698039233684540 );
#408 = COLOUR_RGB( '', 0.643137276172638, 0.678431391716003, 0.698039233684540 );
#409 = CARTESIAN_POINT( '', ( -63.5000000000000, 3.17500000000000, -4.75000000000000 ) );
#410 = VECTOR( '', #453, 1000.00000000000 );
#411 = COLOUR_RGB( '', 0.643137276172638, 0.678431391716003, 0.698039233684540 );
#412 = DIRECTION( '', ( 1.00000000000000, 0.000000000000000, 0.000000000000000 ) );
#413 = DIRECTION( '', ( 0.000000000000000, -1.00000000000000, 0.000000000000000 ) );
#414 = DIRECTION( '', ( 1.00000000000000, 0.000000000000000, 0.000000000000000 ) );
#415 = DIRECTION( '', ( 0.000000000000000, -1.00000000000000, 0.000000000000000 ) );
#416 = CARTESIAN_POINT( '', ( 50.8000000000000, 0.000000000000000, -1.39720000000000 ) );
#417 = DIRECTION( '', ( 0.000000000000000, -1.00000000000000, 0.000000000000000 ) );
#418 = DIRECTION( '', ( 1.00000000000000, 0.000000000000000, 0.000000000000000 ) );
#419 = CARTESIAN_POINT( '', ( 50.8000000000000, 3.00000000000000, -1.39720000000000 ) );
#420 = DIRECTION( '', ( 0.000000000000000, 1.00000000000000, 0.000000000000000 ) );
#421 = DIRECTION( '', ( 0.000000000000000, 0.000000000000000, 1.00000000000000 ) );
#422 = CARTESIAN_POINT( '', ( -0.0113879274768677, 0.000000000000000, -1.39720000000000 ) );
#423 = DIRECTION( '', ( 0.000000000000000, -1.00000000000000, 0.000000000000000 ) );
#424 = DIRECTION( '', ( 1.00000000000000, 0.000000000000000, 0.000000000000000 ) );
#425 = CARTESIAN_POINT( '', ( -0.0113879274768677, 3.00000000000000, -1.39720000000000 ) );
#426 = DIRECTION( '', ( 0.000000000000000, 1.00000000000000, 0.000000000000000 ) );
#427 = DIRECTION( '', ( 0.000000000000000, 0.000000000000000, 1.00000000000000 ) );
#428 = CARTESIAN_POINT( '', ( 25.3886120725232, 0.000000000000000, -1.39720000000000 ) );
#429 = DIRECTION( '', ( 0.000000000000000, -1.00000000000000, 0.000000000000000 ) );
#430 = DIRECTION( '', ( 1.00000000000000, 0.000000000000000, 0.000000000000000 ) );
#431 = CARTESIAN_POINT( '', ( 25.3886120725232, 3.00000000000000, -1.39720000000000 ) );
#432 = DIRECTION( '', ( 0.000000000000000, 1.00000000000000, 0.000000000000000 ) );
#433 = DIRECTION( '', ( 0.000000000000000, 0.000000000000000, 1.00000000000000 ) );
#434 = CARTESIAN_POINT( '', ( -50.8113879274769, 0.000000000000000, -1.39720000000000 ) );
#435 = DIRECTION( '', ( 0.000000000000000, -1.00000000000000, 0.000000000000000 ) );
#436 = DIRECTION( '', ( 1.00000000000000, 0.000000000000000, 0.000000000000000 ) );
#437 = CARTESIAN_POINT( '', ( -25.4113879274768, 0.000000000000000, -1.39720000000000 ) );
#438 = DIRECTION( '', ( 0.000000000000000, -1.00000000000000, 0.000000000000000 ) );
#439 = DIRECTION( '', ( 1.00000000000000, 0.000000000000000, 0.000000000000000 ) );
#440 = DIRECTION( '', ( 0.000000000000000, 0.000000000000000, -1.00000000000000 ) );
#441 = DIRECTION( '', ( 0.000000000000000, 0.000000000000000, 1.00000000000000 ) );
#442 = DIRECTION( '', ( -1.00000000000000, 0.000000000000000, 0.000000000000000 ) );
#443 = DIRECTION( '', ( 0.000000000000000, -1.00000000000000, 0.000000000000000 ) );
#444 = DIRECTION( '', ( 0.000000000000000, 0.000000000000000, -1.00000000000000 ) );
#445 = CARTESIAN_POINT( '', ( -25.4113879274768, 3.00000000000000, -1.39720000000000 ) );
#446 = DIRECTION( '', ( 0.000000000000000, 1.00000000000000, 0.000000000000000 ) );
#447 = DIRECTION( '', ( 0.000000000000000, 0.000000000000000, 1.00000000000000 ) );
#448 = CARTESIAN_POINT( '', ( -50.8113879274769, 3.00000000000000, -1.39720000000000 ) );
#449 = DIRECTION( '', ( 0.000000000000000, 1.00000000000000, 0.000000000000000 ) );
#450 = DIRECTION( '', ( 0.000000000000000, 0.000000000000000, 1.00000000000000 ) );
#451 = DIRECTION( '', ( -1.00000000000000, 0.000000000000000, 0.000000000000000 ) );
#452 = DIRECTION( '', ( 0.000000000000000, 0.000000000000000, 1.00000000000000 ) );
#453 = DIRECTION( '', ( 0.000000000000000, -1.00000000000000, 0.000000000000000 ) );
ENDSEC;
END-ISO-10303-21;
