ISO-10303-21;
HEADER;
FILE_DESCRIPTION( ( 'Unknown' ), '1' );
FILE_NAME( 'C:/Users/dugger/Dropbox/labShareRobert/CAD Parts/Parts/WireGuard.stp', 'Unknown', ( 'Unknown' ), ( 'Unknown' ), 'PSStep 16.0.42', 'Unknown', '  ' );
FILE_SCHEMA( ( 'AUTOMOTIVE_DESIGN { 1 0 10303 214 1 1 1 1 }' ) );
ENDSEC;
DATA;
#1 = MECHANICAL_DESIGN_GEOMETRIC_PRESENTATION_REPRESENTATION( ' ', ( #10, #11, #12, #13, #14, #15, #16, #17, #18, #19 ), #6 );
#2 = PRODUCT_DEFINITION_CONTEXT( '', #20, 'design' );
#3 = APPLICATION_PROTOCOL_DEFINITION( 'international standard', 'automotive_design', 2001, #20 );
#4 = PRODUCT_CATEGORY_RELATIONSHIP( 'NONE', 'NONE', #21, #22 );
#5 = SHAPE_DEFINITION_REPRESENTATION( #23, #24 );
#6 =  ( GEOMETRIC_REPRESENTATION_CONTEXT( 3 )GLOBAL_UNCERTAINTY_ASSIGNED_CONTEXT( ( #27 ) )GLOBAL_UNIT_ASSIGNED_CONTEXT( ( #29, #30, #31 ) )REPRESENTATION_CONTEXT( 'NONE', 'WORKSPACE' ) );
#10 = STYLED_ITEM( '', ( #33 ), #34 );
#11 = STYLED_ITEM( '', ( #35 ), #36 );
#12 = STYLED_ITEM( '', ( #37 ), #38 );
#13 = STYLED_ITEM( '', ( #39 ), #40 );
#14 = STYLED_ITEM( '', ( #41 ), #42 );
#15 = STYLED_ITEM( '', ( #43 ), #44 );
#16 = STYLED_ITEM( '', ( #45 ), #46 );
#17 = STYLED_ITEM( '', ( #47 ), #48 );
#18 = STYLED_ITEM( '', ( #49 ), #50 );
#19 = STYLED_ITEM( '', ( #51 ), #52 );
#20 = APPLICATION_CONTEXT( 'core data for automotive mechanical design processes' );
#21 = PRODUCT_CATEGORY( 'part', 'NONE' );
#22 = PRODUCT_RELATED_PRODUCT_CATEGORY( 'detail', ' ', ( #53 ) );
#23 = PRODUCT_DEFINITION_SHAPE( 'NONE', 'NONE', #54 );
#24 = ADVANCED_BREP_SHAPE_REPRESENTATION( '1', ( #55, #56 ), #6 );
#27 = UNCERTAINTY_MEASURE_WITH_UNIT( LENGTH_MEASURE( 0.00100000000000000 ), #29, '', '' );
#29 =  ( CONVERSION_BASED_UNIT( 'MILLIMETRE', #59 )LENGTH_UNIT(  )NAMED_UNIT( #62 ) );
#30 =  ( NAMED_UNIT( #64 )PLANE_ANGLE_UNIT(  )SI_UNIT( $, .RADIAN. ) );
#31 =  ( NAMED_UNIT( #64 )SI_UNIT( $, .STERADIAN. )SOLID_ANGLE_UNIT(  ) );
#33 = PRESENTATION_STYLE_ASSIGNMENT( ( #70 ) );
#34 = ADVANCED_FACE( '', ( #71, #72 ), #73, .F. );
#35 = PRESENTATION_STYLE_ASSIGNMENT( ( #74 ) );
#36 = ADVANCED_FACE( '', ( #75, #76, #77, #78, #79 ), #80, .F. );
#37 = PRESENTATION_STYLE_ASSIGNMENT( ( #81 ) );
#38 = ADVANCED_FACE( '', ( #82 ), #83, .T. );
#39 = PRESENTATION_STYLE_ASSIGNMENT( ( #84 ) );
#40 = ADVANCED_FACE( '', ( #85 ), #86, .T. );
#41 = PRESENTATION_STYLE_ASSIGNMENT( ( #87 ) );
#42 = ADVANCED_FACE( '', ( #88, #89 ), #90, .F. );
#43 = PRESENTATION_STYLE_ASSIGNMENT( ( #91 ) );
#44 = ADVANCED_FACE( '', ( #92, #93 ), #94, .F. );
#45 = PRESENTATION_STYLE_ASSIGNMENT( ( #95 ) );
#46 = ADVANCED_FACE( '', ( #96 ), #97, .T. );
#47 = PRESENTATION_STYLE_ASSIGNMENT( ( #98 ) );
#48 = ADVANCED_FACE( '', ( #99, #100 ), #101, .F. );
#49 = PRESENTATION_STYLE_ASSIGNMENT( ( #102 ) );
#50 = ADVANCED_FACE( '', ( #103, #104, #105, #106, #107 ), #108, .T. );
#51 = PRESENTATION_STYLE_ASSIGNMENT( ( #109 ) );
#52 = ADVANCED_FACE( '', ( #110 ), #111, .T. );
#53 = PRODUCT( '1', '1', 'PART-1-DESC', ( #112 ) );
#54 = PRODUCT_DEFINITION( 'NONE', 'NONE', #113, #2 );
#55 = MANIFOLD_SOLID_BREP( '1', #114 );
#56 = AXIS2_PLACEMENT_3D( '', #115, #116, #117 );
#59 = LENGTH_MEASURE_WITH_UNIT( LENGTH_MEASURE( 1.00000000000000 ), #118 );
#62 = DIMENSIONAL_EXPONENTS( 1.00000000000000, 0.000000000000000, 0.000000000000000, 0.000000000000000, 0.000000000000000, 0.000000000000000, 0.000000000000000 );
#64 = DIMENSIONAL_EXPONENTS( 0.000000000000000, 0.000000000000000, 0.000000000000000, 0.000000000000000, 0.000000000000000, 0.000000000000000, 0.000000000000000 );
#70 = SURFACE_STYLE_USAGE( .BOTH., #119 );
#71 = FACE_OUTER_BOUND( '', #120, .T. );
#72 = FACE_OUTER_BOUND( '', #121, .T. );
#73 = CYLINDRICAL_SURFACE( '', #122, 2.15900000000000 );
#74 = SURFACE_STYLE_USAGE( .BOTH., #123 );
#75 = FACE_BOUND( '', #124, .T. );
#76 = FACE_BOUND( '', #125, .T. );
#77 = FACE_BOUND( '', #126, .T. );
#78 = FACE_BOUND( '', #127, .T. );
#79 = FACE_OUTER_BOUND( '', #128, .T. );
#80 = PLANE( '', #129 );
#81 = SURFACE_STYLE_USAGE( .BOTH., #130 );
#82 = FACE_OUTER_BOUND( '', #131, .T. );
#83 = PLANE( '', #132 );
#84 = SURFACE_STYLE_USAGE( .BOTH., #133 );
#85 = FACE_OUTER_BOUND( '', #134, .T. );
#86 = PLANE( '', #135 );
#87 = SURFACE_STYLE_USAGE( .BOTH., #136 );
#88 = FACE_OUTER_BOUND( '', #137, .T. );
#89 = FACE_OUTER_BOUND( '', #138, .T. );
#90 = CYLINDRICAL_SURFACE( '', #139, 2.15900000000000 );
#91 = SURFACE_STYLE_USAGE( .BOTH., #140 );
#92 = FACE_OUTER_BOUND( '', #141, .T. );
#93 = FACE_OUTER_BOUND( '', #142, .T. );
#94 = CYLINDRICAL_SURFACE( '', #143, 2.15900000000000 );
#95 = SURFACE_STYLE_USAGE( .BOTH., #144 );
#96 = FACE_OUTER_BOUND( '', #145, .T. );
#97 = PLANE( '', #146 );
#98 = SURFACE_STYLE_USAGE( .BOTH., #147 );
#99 = FACE_OUTER_BOUND( '', #148, .T. );
#100 = FACE_OUTER_BOUND( '', #149, .T. );
#101 = CYLINDRICAL_SURFACE( '', #150, 2.15900000000000 );
#102 = SURFACE_STYLE_USAGE( .BOTH., #151 );
#103 = FACE_BOUND( '', #152, .T. );
#104 = FACE_BOUND( '', #153, .T. );
#105 = FACE_BOUND( '', #154, .T. );
#106 = FACE_BOUND( '', #155, .T. );
#107 = FACE_OUTER_BOUND( '', #156, .T. );
#108 = PLANE( '', #157 );
#109 = SURFACE_STYLE_USAGE( .BOTH., #158 );
#110 = FACE_OUTER_BOUND( '', #159, .T. );
#111 = PLANE( '', #160 );
#112 = PRODUCT_CONTEXT( '', #20, 'mechanical' );
#113 = PRODUCT_DEFINITION_FORMATION_WITH_SPECIFIED_SOURCE( ' ', 'NONE', #53, .NOT_KNOWN. );
#114 = CLOSED_SHELL( '', ( #50, #46, #40, #48, #34, #42, #44, #36, #38, #52 ) );
#115 = CARTESIAN_POINT( '', ( 0.000000000000000, 0.000000000000000, 0.000000000000000 ) );
#116 = DIRECTION( '', ( 0.000000000000000, 0.000000000000000, 1.00000000000000 ) );
#117 = DIRECTION( '', ( 1.00000000000000, 0.000000000000000, 0.000000000000000 ) );
#118 =  ( LENGTH_UNIT(  )NAMED_UNIT( #62 )SI_UNIT( .MILLI., .METRE. ) );
#119 = SURFACE_SIDE_STYLE( '', ( #162 ) );
#120 = EDGE_LOOP( '', ( #163 ) );
#121 = EDGE_LOOP( '', ( #164 ) );
#122 = AXIS2_PLACEMENT_3D( '', #165, #166, #167 );
#123 = SURFACE_SIDE_STYLE( '', ( #168 ) );
#124 = EDGE_LOOP( '', ( #169 ) );
#125 = EDGE_LOOP( '', ( #170 ) );
#126 = EDGE_LOOP( '', ( #171 ) );
#127 = EDGE_LOOP( '', ( #172 ) );
#128 = EDGE_LOOP( '', ( #173, #174, #175, #176 ) );
#129 = AXIS2_PLACEMENT_3D( '', #177, #178, #179 );
#130 = SURFACE_SIDE_STYLE( '', ( #180 ) );
#131 = EDGE_LOOP( '', ( #181, #182, #183, #184 ) );
#132 = AXIS2_PLACEMENT_3D( '', #185, #186, #187 );
#133 = SURFACE_SIDE_STYLE( '', ( #188 ) );
#134 = EDGE_LOOP( '', ( #189, #190, #191, #192 ) );
#135 = AXIS2_PLACEMENT_3D( '', #193, #194, #195 );
#136 = SURFACE_SIDE_STYLE( '', ( #196 ) );
#137 = EDGE_LOOP( '', ( #197 ) );
#138 = EDGE_LOOP( '', ( #198 ) );
#139 = AXIS2_PLACEMENT_3D( '', #199, #200, #201 );
#140 = SURFACE_SIDE_STYLE( '', ( #202 ) );
#141 = EDGE_LOOP( '', ( #203 ) );
#142 = EDGE_LOOP( '', ( #204 ) );
#143 = AXIS2_PLACEMENT_3D( '', #205, #206, #207 );
#144 = SURFACE_SIDE_STYLE( '', ( #208 ) );
#145 = EDGE_LOOP( '', ( #209, #210, #211, #212 ) );
#146 = AXIS2_PLACEMENT_3D( '', #213, #214, #215 );
#147 = SURFACE_SIDE_STYLE( '', ( #216 ) );
#148 = EDGE_LOOP( '', ( #217 ) );
#149 = EDGE_LOOP( '', ( #218 ) );
#150 = AXIS2_PLACEMENT_3D( '', #219, #220, #221 );
#151 = SURFACE_SIDE_STYLE( '', ( #222 ) );
#152 = EDGE_LOOP( '', ( #223 ) );
#153 = EDGE_LOOP( '', ( #224 ) );
#154 = EDGE_LOOP( '', ( #225 ) );
#155 = EDGE_LOOP( '', ( #226 ) );
#156 = EDGE_LOOP( '', ( #227, #228, #229, #230 ) );
#157 = AXIS2_PLACEMENT_3D( '', #231, #232, #233 );
#158 = SURFACE_SIDE_STYLE( '', ( #234 ) );
#159 = EDGE_LOOP( '', ( #235, #236, #237, #238 ) );
#160 = AXIS2_PLACEMENT_3D( '', #239, #240, #241 );
#162 = SURFACE_STYLE_FILL_AREA( #242 );
#163 = ORIENTED_EDGE( '', *, *, #243, .F. );
#164 = ORIENTED_EDGE( '', *, *, #244, .T. );
#165 = CARTESIAN_POINT( '', ( 22.2115989258534, 112.526318060487, -10.3540932087691 ) );
#166 = DIRECTION( '', ( -0.000000000000000, 1.00000000000000, -0.000000000000000 ) );
#167 = DIRECTION( '', ( 0.000000000000000, 0.000000000000000, -1.00000000000000 ) );
#168 = SURFACE_STYLE_FILL_AREA( #245 );
#169 = ORIENTED_EDGE( '', *, *, #243, .T. );
#170 = ORIENTED_EDGE( '', *, *, #246, .T. );
#171 = ORIENTED_EDGE( '', *, *, #247, .T. );
#172 = ORIENTED_EDGE( '', *, *, #248, .T. );
#173 = ORIENTED_EDGE( '', *, *, #249, .F. );
#174 = ORIENTED_EDGE( '', *, *, #250, .F. );
#175 = ORIENTED_EDGE( '', *, *, #251, .F. );
#176 = ORIENTED_EDGE( '', *, *, #252, .F. );
#177 = CARTESIAN_POINT( '', ( 0.000000000000000, 0.952500000000000, 0.000000000000000 ) );
#178 = DIRECTION( '', ( 0.000000000000000, -1.00000000000000, 0.000000000000000 ) );
#179 = DIRECTION( '', ( 0.000000000000000, 0.000000000000000, -1.00000000000000 ) );
#180 = SURFACE_STYLE_FILL_AREA( #253 );
#181 = ORIENTED_EDGE( '', *, *, #254, .F. );
#182 = ORIENTED_EDGE( '', *, *, #255, .F. );
#183 = ORIENTED_EDGE( '', *, *, #250, .T. );
#184 = ORIENTED_EDGE( '', *, *, #256, .T. );
#185 = CARTESIAN_POINT( '', ( -79.3884010741466, 0.952500000000000, 15.0459067912309 ) );
#186 = DIRECTION( '', ( -1.00000000000000, 0.000000000000000, 0.000000000000000 ) );
#187 = DIRECTION( '', ( 0.000000000000000, 0.000000000000000, 1.00000000000000 ) );
#188 = SURFACE_STYLE_FILL_AREA( #257 );
#189 = ORIENTED_EDGE( '', *, *, #258, .F. );
#190 = ORIENTED_EDGE( '', *, *, #259, .F. );
#191 = ORIENTED_EDGE( '', *, *, #252, .T. );
#192 = ORIENTED_EDGE( '', *, *, #260, .T. );
#193 = CARTESIAN_POINT( '', ( 28.5615989258534, 0.952500000000000, -16.7040932087691 ) );
#194 = DIRECTION( '', ( 1.00000000000000, 0.000000000000000, 1.09273919746570E-016 ) );
#195 = DIRECTION( '', ( 1.09273919746570E-016, 0.000000000000000, -1.00000000000000 ) );
#196 = SURFACE_STYLE_FILL_AREA( #261 );
#197 = ORIENTED_EDGE( '', *, *, #246, .F. );
#198 = ORIENTED_EDGE( '', *, *, #262, .T. );
#199 = CARTESIAN_POINT( '', ( -9.53840107414661, 112.526318060487, 7.92130552281841 ) );
#200 = DIRECTION( '', ( -0.000000000000000, 1.00000000000000, -0.000000000000000 ) );
#201 = DIRECTION( '', ( 0.000000000000000, 0.000000000000000, -1.00000000000000 ) );
#202 = SURFACE_STYLE_FILL_AREA( #263 );
#203 = ORIENTED_EDGE( '', *, *, #247, .F. );
#204 = ORIENTED_EDGE( '', *, *, #264, .T. );
#205 = CARTESIAN_POINT( '', ( -41.2884010741466, 112.526318060487, -9.53940821490664 ) );
#206 = DIRECTION( '', ( -0.000000000000000, 1.00000000000000, -0.000000000000000 ) );
#207 = DIRECTION( '', ( 0.000000000000000, 0.000000000000000, -1.00000000000000 ) );
#208 = SURFACE_STYLE_FILL_AREA( #265 );
#209 = ORIENTED_EDGE( '', *, *, #266, .F. );
#210 = ORIENTED_EDGE( '', *, *, #256, .F. );
#211 = ORIENTED_EDGE( '', *, *, #249, .T. );
#212 = ORIENTED_EDGE( '', *, *, #259, .T. );
#213 = CARTESIAN_POINT( '', ( -79.3884010741466, 0.952500000000000, -16.7040932087691 ) );
#214 = DIRECTION( '', ( 6.42787763215121E-017, 0.000000000000000, -1.00000000000000 ) );
#215 = DIRECTION( '', ( -1.00000000000000, 0.000000000000000, -6.42787763215121E-017 ) );
#216 = SURFACE_STYLE_FILL_AREA( #267 );
#217 = ORIENTED_EDGE( '', *, *, #248, .F. );
#218 = ORIENTED_EDGE( '', *, *, #268, .T. );
#219 = CARTESIAN_POINT( '', ( -73.0384010741466, 112.526318060487, 8.69590679123084 ) );
#220 = DIRECTION( '', ( -0.000000000000000, 1.00000000000000, -0.000000000000000 ) );
#221 = DIRECTION( '', ( 0.000000000000000, 0.000000000000000, -1.00000000000000 ) );
#222 = SURFACE_STYLE_FILL_AREA( #269 );
#223 = ORIENTED_EDGE( '', *, *, #244, .F. );
#224 = ORIENTED_EDGE( '', *, *, #262, .F. );
#225 = ORIENTED_EDGE( '', *, *, #264, .F. );
#226 = ORIENTED_EDGE( '', *, *, #268, .F. );
#227 = ORIENTED_EDGE( '', *, *, #266, .T. );
#228 = ORIENTED_EDGE( '', *, *, #258, .T. );
#229 = ORIENTED_EDGE( '', *, *, #270, .T. );
#230 = ORIENTED_EDGE( '', *, *, #254, .T. );
#231 = CARTESIAN_POINT( '', ( 0.000000000000000, 0.000000000000000, 0.000000000000000 ) );
#232 = DIRECTION( '', ( 0.000000000000000, -1.00000000000000, 0.000000000000000 ) );
#233 = DIRECTION( '', ( 0.000000000000000, 0.000000000000000, -1.00000000000000 ) );
#234 = SURFACE_STYLE_FILL_AREA( #271 );
#235 = ORIENTED_EDGE( '', *, *, #270, .F. );
#236 = ORIENTED_EDGE( '', *, *, #260, .F. );
#237 = ORIENTED_EDGE( '', *, *, #251, .T. );
#238 = ORIENTED_EDGE( '', *, *, #255, .T. );
#239 = CARTESIAN_POINT( '', ( 28.5615989258534, 0.952500000000000, 15.0459067912309 ) );
#240 = DIRECTION( '', ( -6.42787763215121E-017, 0.000000000000000, 1.00000000000000 ) );
#241 = DIRECTION( '', ( 1.00000000000000, 0.000000000000000, 6.42787763215121E-017 ) );
#242 = FILL_AREA_STYLE( '', ( #272 ) );
#243 = EDGE_CURVE( '', #273, #273, #274, .T. );
#244 = EDGE_CURVE( '', #275, #275, #276, .T. );
#245 = FILL_AREA_STYLE( '', ( #277 ) );
#246 = EDGE_CURVE( '', #278, #278, #279, .T. );
#247 = EDGE_CURVE( '', #280, #280, #281, .T. );
#248 = EDGE_CURVE( '', #282, #282, #283, .T. );
#249 = EDGE_CURVE( '', #284, #285, #286, .T. );
#250 = EDGE_CURVE( '', #287, #284, #288, .T. );
#251 = EDGE_CURVE( '', #289, #287, #290, .T. );
#252 = EDGE_CURVE( '', #285, #289, #291, .T. );
#253 = FILL_AREA_STYLE( '', ( #292 ) );
#254 = EDGE_CURVE( '', #293, #294, #295, .T. );
#255 = EDGE_CURVE( '', #287, #293, #296, .T. );
#256 = EDGE_CURVE( '', #284, #294, #297, .T. );
#257 = FILL_AREA_STYLE( '', ( #298 ) );
#258 = EDGE_CURVE( '', #299, #300, #301, .T. );
#259 = EDGE_CURVE( '', #285, #299, #302, .T. );
#260 = EDGE_CURVE( '', #289, #300, #303, .T. );
#261 = FILL_AREA_STYLE( '', ( #304 ) );
#262 = EDGE_CURVE( '', #305, #305, #306, .T. );
#263 = FILL_AREA_STYLE( '', ( #307 ) );
#264 = EDGE_CURVE( '', #308, #308, #309, .T. );
#265 = FILL_AREA_STYLE( '', ( #310 ) );
#266 = EDGE_CURVE( '', #294, #299, #311, .T. );
#267 = FILL_AREA_STYLE( '', ( #312 ) );
#268 = EDGE_CURVE( '', #313, #313, #314, .T. );
#269 = FILL_AREA_STYLE( '', ( #315 ) );
#270 = EDGE_CURVE( '', #300, #293, #316, .T. );
#271 = FILL_AREA_STYLE( '', ( #317 ) );
#272 = FILL_AREA_STYLE_COLOUR( '', #318 );
#273 = VERTEX_POINT( '', #319 );
#274 = CIRCLE( '', #320, 2.15900000000000 );
#275 = VERTEX_POINT( '', #321 );
#276 = CIRCLE( '', #322, 2.15900000000000 );
#277 = FILL_AREA_STYLE_COLOUR( '', #323 );
#278 = VERTEX_POINT( '', #324 );
#279 = CIRCLE( '', #325, 2.15900000000000 );
#280 = VERTEX_POINT( '', #326 );
#281 = CIRCLE( '', #327, 2.15900000000000 );
#282 = VERTEX_POINT( '', #328 );
#283 = CIRCLE( '', #329, 2.15900000000000 );
#284 = VERTEX_POINT( '', #330 );
#285 = VERTEX_POINT( '', #331 );
#286 = LINE( '', #332, #333 );
#287 = VERTEX_POINT( '', #334 );
#288 = LINE( '', #335, #336 );
#289 = VERTEX_POINT( '', #337 );
#290 = LINE( '', #338, #339 );
#291 = LINE( '', #340, #341 );
#292 = FILL_AREA_STYLE_COLOUR( '', #342 );
#293 = VERTEX_POINT( '', #343 );
#294 = VERTEX_POINT( '', #344 );
#295 = LINE( '', #345, #346 );
#296 = LINE( '', #347, #348 );
#297 = LINE( '', #349, #350 );
#298 = FILL_AREA_STYLE_COLOUR( '', #351 );
#299 = VERTEX_POINT( '', #352 );
#300 = VERTEX_POINT( '', #353 );
#301 = LINE( '', #354, #355 );
#302 = LINE( '', #356, #357 );
#303 = LINE( '', #358, #359 );
#304 = FILL_AREA_STYLE_COLOUR( '', #360 );
#305 = VERTEX_POINT( '', #361 );
#306 = CIRCLE( '', #362, 2.15900000000000 );
#307 = FILL_AREA_STYLE_COLOUR( '', #363 );
#308 = VERTEX_POINT( '', #364 );
#309 = CIRCLE( '', #365, 2.15900000000000 );
#310 = FILL_AREA_STYLE_COLOUR( '', #366 );
#311 = LINE( '', #367, #368 );
#312 = FILL_AREA_STYLE_COLOUR( '', #369 );
#313 = VERTEX_POINT( '', #370 );
#314 = CIRCLE( '', #371, 2.15900000000000 );
#315 = FILL_AREA_STYLE_COLOUR( '', #372 );
#316 = LINE( '', #373, #374 );
#317 = FILL_AREA_STYLE_COLOUR( '', #375 );
#318 = COLOUR_RGB( '', 0.643137276172638, 0.678431391716003, 0.698039233684540 );
#319 = CARTESIAN_POINT( '', ( 22.2115989258534, 0.952500000000000, -12.5130932087691 ) );
#320 = AXIS2_PLACEMENT_3D( '', #376, #377, #378 );
#321 = CARTESIAN_POINT( '', ( 24.3705989258534, 0.000000000000000, -10.3540932087691 ) );
#322 = AXIS2_PLACEMENT_3D( '', #379, #380, #381 );
#323 = COLOUR_RGB( '', 0.643137276172638, 0.678431391716003, 0.698039233684540 );
#324 = CARTESIAN_POINT( '', ( -9.53840107414661, 0.952500000000000, 5.76230552281841 ) );
#325 = AXIS2_PLACEMENT_3D( '', #382, #383, #384 );
#326 = CARTESIAN_POINT( '', ( -41.2884010741466, 0.952500000000000, -11.6984082149066 ) );
#327 = AXIS2_PLACEMENT_3D( '', #385, #386, #387 );
#328 = CARTESIAN_POINT( '', ( -73.0384010741466, 0.952500000000000, 6.53690679123084 ) );
#329 = AXIS2_PLACEMENT_3D( '', #388, #389, #390 );
#330 = CARTESIAN_POINT( '', ( -79.3884010741466, 0.952500000000000, -16.7040932087691 ) );
#331 = CARTESIAN_POINT( '', ( 28.5615989258534, 0.952500000000000, -16.7040932087691 ) );
#332 = CARTESIAN_POINT( '', ( -79.3884010741466, 0.952500000000000, -16.7040932087691 ) );
#333 = VECTOR( '', #391, 1000.00000000000 );
#334 = CARTESIAN_POINT( '', ( -79.3884010741466, 0.952500000000000, 15.0459067912309 ) );
#335 = CARTESIAN_POINT( '', ( -79.3884010741466, 0.952500000000000, 15.0459067912309 ) );
#336 = VECTOR( '', #392, 1000.00000000000 );
#337 = CARTESIAN_POINT( '', ( 28.5615989258534, 0.952500000000000, 15.0459067912309 ) );
#338 = CARTESIAN_POINT( '', ( 28.5615989258534, 0.952500000000000, 15.0459067912309 ) );
#339 = VECTOR( '', #393, 1000.00000000000 );
#340 = CARTESIAN_POINT( '', ( 28.5615989258534, 0.952500000000000, -16.7040932087691 ) );
#341 = VECTOR( '', #394, 1000.00000000000 );
#342 = COLOUR_RGB( '', 0.643137276172638, 0.678431391716003, 0.698039233684540 );
#343 = CARTESIAN_POINT( '', ( -79.3884010741466, 0.000000000000000, 15.0459067912309 ) );
#344 = CARTESIAN_POINT( '', ( -79.3884010741466, 0.000000000000000, -16.7040932087691 ) );
#345 = CARTESIAN_POINT( '', ( -79.3884010741466, 0.000000000000000, 15.0459067912309 ) );
#346 = VECTOR( '', #395, 1000.00000000000 );
#347 = CARTESIAN_POINT( '', ( -79.3884010741466, 0.952500000000000, 15.0459067912309 ) );
#348 = VECTOR( '', #396, 1000.00000000000 );
#349 = CARTESIAN_POINT( '', ( -79.3884010741466, 0.952500000000000, -16.7040932087691 ) );
#350 = VECTOR( '', #397, 1000.00000000000 );
#351 = COLOUR_RGB( '', 0.643137276172638, 0.678431391716003, 0.698039233684540 );
#352 = CARTESIAN_POINT( '', ( 28.5615989258534, 0.000000000000000, -16.7040932087691 ) );
#353 = CARTESIAN_POINT( '', ( 28.5615989258534, 0.000000000000000, 15.0459067912309 ) );
#354 = CARTESIAN_POINT( '', ( 28.5615989258534, 0.000000000000000, -16.7040932087691 ) );
#355 = VECTOR( '', #398, 1000.00000000000 );
#356 = CARTESIAN_POINT( '', ( 28.5615989258534, 0.952500000000000, -16.7040932087691 ) );
#357 = VECTOR( '', #399, 1000.00000000000 );
#358 = CARTESIAN_POINT( '', ( 28.5615989258534, 0.952500000000000, 15.0459067912309 ) );
#359 = VECTOR( '', #400, 1000.00000000000 );
#360 = COLOUR_RGB( '', 0.643137276172638, 0.678431391716003, 0.698039233684540 );
#361 = CARTESIAN_POINT( '', ( -7.37940107414661, 0.000000000000000, 7.92130552281841 ) );
#362 = AXIS2_PLACEMENT_3D( '', #401, #402, #403 );
#363 = COLOUR_RGB( '', 0.643137276172638, 0.678431391716003, 0.698039233684540 );
#364 = CARTESIAN_POINT( '', ( -39.1294010741466, 0.000000000000000, -9.53940821490664 ) );
#365 = AXIS2_PLACEMENT_3D( '', #404, #405, #406 );
#366 = COLOUR_RGB( '', 0.643137276172638, 0.678431391716003, 0.698039233684540 );
#367 = CARTESIAN_POINT( '', ( -79.3884010741466, 0.000000000000000, -16.7040932087691 ) );
#368 = VECTOR( '', #407, 1000.00000000000 );
#369 = COLOUR_RGB( '', 0.643137276172638, 0.678431391716003, 0.698039233684540 );
#370 = CARTESIAN_POINT( '', ( -70.8794010741466, 0.000000000000000, 8.69590679123084 ) );
#371 = AXIS2_PLACEMENT_3D( '', #408, #409, #410 );
#372 = COLOUR_RGB( '', 0.643137276172638, 0.678431391716003, 0.698039233684540 );
#373 = CARTESIAN_POINT( '', ( 28.5615989258534, 0.000000000000000, 15.0459067912309 ) );
#374 = VECTOR( '', #411, 1000.00000000000 );
#375 = COLOUR_RGB( '', 0.643137276172638, 0.678431391716003, 0.698039233684540 );
#376 = CARTESIAN_POINT( '', ( 22.2115989258534, 0.952500000000000, -10.3540932087691 ) );
#377 = DIRECTION( '', ( 0.000000000000000, -1.00000000000000, 0.000000000000000 ) );
#378 = DIRECTION( '', ( 0.000000000000000, 0.000000000000000, -1.00000000000000 ) );
#379 = CARTESIAN_POINT( '', ( 22.2115989258534, 0.000000000000000, -10.3540932087691 ) );
#380 = DIRECTION( '', ( 0.000000000000000, -1.00000000000000, 0.000000000000000 ) );
#381 = DIRECTION( '', ( 1.00000000000000, 0.000000000000000, 6.42787763215121E-017 ) );
#382 = CARTESIAN_POINT( '', ( -9.53840107414661, 0.952500000000000, 7.92130552281841 ) );
#383 = DIRECTION( '', ( 0.000000000000000, -1.00000000000000, 0.000000000000000 ) );
#384 = DIRECTION( '', ( 0.000000000000000, 0.000000000000000, -1.00000000000000 ) );
#385 = CARTESIAN_POINT( '', ( -41.2884010741466, 0.952500000000000, -9.53940821490664 ) );
#386 = DIRECTION( '', ( 0.000000000000000, -1.00000000000000, 0.000000000000000 ) );
#387 = DIRECTION( '', ( 0.000000000000000, 0.000000000000000, -1.00000000000000 ) );
#388 = CARTESIAN_POINT( '', ( -73.0384010741466, 0.952500000000000, 8.69590679123084 ) );
#389 = DIRECTION( '', ( 0.000000000000000, -1.00000000000000, 0.000000000000000 ) );
#390 = DIRECTION( '', ( 0.000000000000000, 0.000000000000000, -1.00000000000000 ) );
#391 = DIRECTION( '', ( 1.00000000000000, 0.000000000000000, 6.42787763215121E-017 ) );
#392 = DIRECTION( '', ( 0.000000000000000, 0.000000000000000, -1.00000000000000 ) );
#393 = DIRECTION( '', ( -1.00000000000000, 0.000000000000000, -6.42787763215121E-017 ) );
#394 = DIRECTION( '', ( -1.09273919746570E-016, 0.000000000000000, 1.00000000000000 ) );
#395 = DIRECTION( '', ( 0.000000000000000, 0.000000000000000, -1.00000000000000 ) );
#396 = DIRECTION( '', ( 0.000000000000000, -1.00000000000000, 0.000000000000000 ) );
#397 = DIRECTION( '', ( 0.000000000000000, -1.00000000000000, 0.000000000000000 ) );
#398 = DIRECTION( '', ( -1.09273919746570E-016, 0.000000000000000, 1.00000000000000 ) );
#399 = DIRECTION( '', ( 0.000000000000000, -1.00000000000000, 0.000000000000000 ) );
#400 = DIRECTION( '', ( 0.000000000000000, -1.00000000000000, 0.000000000000000 ) );
#401 = CARTESIAN_POINT( '', ( -9.53840107414661, 0.000000000000000, 7.92130552281841 ) );
#402 = DIRECTION( '', ( 0.000000000000000, -1.00000000000000, 0.000000000000000 ) );
#403 = DIRECTION( '', ( 1.00000000000000, 0.000000000000000, 6.42787763215121E-017 ) );
#404 = CARTESIAN_POINT( '', ( -41.2884010741466, 0.000000000000000, -9.53940821490664 ) );
#405 = DIRECTION( '', ( 0.000000000000000, -1.00000000000000, 0.000000000000000 ) );
#406 = DIRECTION( '', ( 1.00000000000000, 0.000000000000000, 6.42787763215121E-017 ) );
#407 = DIRECTION( '', ( 1.00000000000000, 0.000000000000000, 6.42787763215121E-017 ) );
#408 = CARTESIAN_POINT( '', ( -73.0384010741466, 0.000000000000000, 8.69590679123084 ) );
#409 = DIRECTION( '', ( 0.000000000000000, -1.00000000000000, 0.000000000000000 ) );
#410 = DIRECTION( '', ( 1.00000000000000, 0.000000000000000, 6.42787763215121E-017 ) );
#411 = DIRECTION( '', ( -1.00000000000000, 0.000000000000000, -6.42787763215121E-017 ) );
ENDSEC;
END-ISO-10303-21;
